Corridors of Time (Chrono Trigger) Bass Tab

Submitted: Oct 14, 2010 by auriplane (Last updated: Oct 14, 2010)

0
Download | Listen
Game: Chrono Trigger
Composer(s): Nobuo Uematsu, Yasunori Mitsuda, Noriko Matsueda
Style: Transcription
Series: Chrono

AutoScroll: Slow | Medium | Fast
                    Chrono Trigger - Chrono Corridor BASS TAB
                            Song by Yasunori Mitsuda

                    Tabbed by auriplane ([email protected])

Also called "Corridors of Time", or "Time Circuits" (a mistranslation).

Four-string bass, standard tuning.

G |----------------|----------------|--------------11|----------------| \
D |--------------12|--------------12|------------11--|----------------|  \
A |------------12--|------------12--|9-----9---------|9-----9---------|   |
E |10----10--------|10----10--------|----------------|------------12--|   |
                                                                          | x2
                                                                          |
G |----------------|----------------|----------------|----------------|   |
D |--------------12|--------------12|--------------11|----------------|   |
A |------------12--|------------12--|------------11--|------------11--|   |
E |10----10--------|10----10--------|9-----9---------|9-----9---------|  /


G |----------------|--------------9-|--------------11|----------------|
D |--------------12|------------9---|------------11--|----------------|
A |------------12--|----------------|9-----9---------|9-----9---------|
E |10----10--------|12----12--------|----------------|------------12--|


G |----------------|----------------|--------------11|----------------| \
D |--------------12|--------------12|------------11--|----------------|  | x3
A |------------12--|------------12--|9-----9---------|9-----9---------|  |
E |10----10--------|10----10--------|----------------|------------12--| /


G |----------------|----------------|--------------11|--------------11|
D |--------------12|----------------|------------11--|------------11--|
A |------------12--|----------------|9-----9---------|9-----9---------|
E |10----10--------|10----10-9----9-|----------------|----------------|
Login or Register to remove this ad.