Brink of Time (Super Guitar Bros Version) (Chrono Trigger) Guitar Tab

Submitted: Jun 09, 2017 by Coolbreeze (Last updated: Jun 13, 2017)

5
Average: 5 (1 vote)
Download | Listen
Game: Chrono Trigger
Composer(s): Nobuo Uematsu, Yasunori Mitsuda, Noriko Matsueda
Style: 2 or more instruments, Arrangement, Artificial harmonics, Transcription
Series: Chrono

Click here for a video example.

AutoScroll: Slow | Medium | Fast
			  Brink of Time
			~Chrono Trigger~

Music by Yasunori Mitsuda
Arranged by Super Guitar Bros
Tabbed by Coolbreeze
Tempo = 72

Standard Tuning


Guitar 1

       ^                 ^                 ^                ^             
       Q.     Q.         Q.     Q.         Q.     Q.        H.            
E||---10-------------|--10-------------|--10-------------|--7------------|
B||---10-------------|--10-------------|--10-------------|--7------------|
G||*--12-------------|--12-------------|--12-------------|--8------------|
D||*--15-------------|--15-------------|--15-------------|--9------------|
A||------------------|-----------------|-----------------|---------------|
E||------------------|-----------------|-----------------|---------------|


   E     E   E   Q     E      E     E   E   Q     E   
------<>19----------------|------<>19----------------|
--17------------15--------|--17------------15--------|
------------16--------16--|------------16--------16--|
--------------------------|--------------------------|
--------------------------|--------------------------|
--------------------------|--------------------------|


   E     E   E   E   E   E      E     Q    Q.         E     E   E   Q     E   
------<>19------------------|------<>19-----------|------<>19----------------|
--17------------15------17--|---L-----------------|--17------------15--------|
------------16------16------|---------------------|------------16--------16--|
----------------------------|---------------------|--------------------------|
----------------------------|---------------------|--------------------------|
----------------------------|---------------------|--------------------------|


   E     E   E   Q     E      E     E   E   E   E   E      E     E   Q    Q     
------<>19----------------|------<>19------------------|------<>19-------------|
--17------------15--------|--17------------15------17--|---L--------16---------|
------------16--------16--|------------16------16------|-----------------------|
--------------------------|----------------------------|-----------------------|
--------------------------|----------------------------|-----------------------|
--------------------------|----------------------------|-----------------------|


  E   E   E  E   E   E     E   E   E  E   E   E     E   E   E  E   E   E   
------7---7------7---7--|------7---7------7---7--|------7---7------7---7--|
------8---8------8---8--|------8---8------8---8--|------8---8------8---8--|
-----11--11-----11--11--|-----11--11-----11--11--|-----11--11-----11--11--|
------------------------|------------------------|------------------------|
--7----------7----------|--7----------7----------|--7----------7----------|
------------------------|------------------------|------------------------|


  E   E   E  E   E   E     E  E  E  E  E  E     E  E  E  E  E  E   
------7---7------7---7--|-----5--5-----5--5--|-----5--5-----5--5--|
------8---8------8---8--|-----6--6-----6--6--|-----6--6-----6--6--|
-----11--11-----11--11--|-----9--9-----9--9--|-----9--9-----9--9--|
------------------------|--0--------0--------|--0--------0--------|
--7----------7----------|--------------------|--------------------|
------------------------|--------------------|--------------------|


  E   E   E  E   E   E     E   E   E  E   E   E     E  E  E  E  E  E   
------7---7------7---7--|------7---7------7---7--|-----5--5-----5--5--|
------8---8------8---8--|------8---8------8---8--|-----6--6-----6--6--|
-----11--11-----11--11--|-----11--11-----11--11--|-----9--9-----9--9--|
------------------------|------------------------|--0--------0--------|
--7----------7----------|--7----------7----------|--------------------|
------------------------|------------------------|--------------------|


  E  E  E  E  E  E     E   E   E  E   E   E     E   E   E  E   E   E   
-----5--5-----5--5--|------------------------|------------------------|
-----6--6-----6--6--|------8---8------8---8--|------8---8------8---8--|
-----9--9-----9--9--|------8---8------8---8--|------8---8------8---8--|
--0--------0--------|-----12--12-----12--12--|-----12--12-----12--12--|
--------------------|------------------------|------------------------|
--------------------|--8----------8----------|--8----------8----------|


  E  E  E  E  E  E     E  E  E  Q.        H.              H.              
--------------------|------------------|---------------|----------------||
--------------------|------------------|---------------|----------------||
-----7--7-----7--7--|-----9--9---------|---------------|---------------*||
-----7--7-----7--7--|-----9--9---------|---------------|---------------*||
-----7--7-----7--7--|-----9--9---------|---------------|----------------||
--5--------5--------|--7--------7------|--L------------|----------------||


  H.              H.              Q    E  E.  S E     E.  S E  Q.      
---------------|---------------|-------------------|------------------|
---------------|---------------|-------------------|------------------|
---------------|---------------|-------6--7---6-7--|------------------|
---------------|---------------|--9----------------|--9---7-9---------|
---------------|---------------|-------------------|-----------7------|
---------------|---------------|-------------------|------------------|


  Q    E  Q    E     Q.     E   E  E     Q     E  E.  S E     E.  S E  Q.      
------------------|-------------------|--------------------|------------------|
---------------8--|-------------------|--------------------|------------------|
----------7-------|--9------9--10--9--|-----------7---6-7--|------------------|
-------7----------|-------------------|--9----11-----------|--9---7-9---------|
--8---------------|-------------------|--------------------|-----------7------|
------------------|-------------------|--------------------|------------------|


  Q    E  Q    E     Q.     E   E  E      Q     E  Q     E   
------------------|-------------------|------------8----10--|
---------------8--|----------------8--|--10----11-----------|
----------7-------|--9------9--10-----|---------------------|
-------7----------|-------------------|---------------------|
--8---------------|-------------------|---------------------|
------------------|-------------------|---------------------|


   E.  S  E  Q    E     H.               H.              H.            
---------------------|---------------|----------------|---------------|
--10---8-10-------8--|---------------|----------------|---------------|
-------------7-------|--9------------|--11------------|---------------|
---------------------|---------------|----------------|---------------|
---------------------|---------------|----------------|---------------|
---------------------|---------------|----------------|---------------|


   ^                 ^                 ^                ^              
   Q.     Q.         Q.     Q.         Q.     Q.        H.             
--10-------------|--10-------------|--10-------------|--7------------||
--10-------------|--10-------------|--10-------------|--7------------||
--12-------------|--12-------------|--12-------------|--8------------||
--15-------------|--15-------------|--15-------------|--9------------||
-----------------|-----------------|-----------------|---------------||
-----------------|-----------------|-----------------|---------------||




Guitar 2

              ^                 ^                 ^                       
      Q.      Q.        Q.      Q.        Q.      Q.        H.            
E||----------12------|---------12------|---------12------|---------------|
B||----------10------|---------10------|---------10------|---------------|
G||*---------12------|---------12------|---------12------|---------------|
D||*---------14------|---------14------|---------14------|---------------|
A||------------------|-----------------|-----------------|---------------|
E||------------------|-----------------|-----------------|---------------|


   ^       ^          ^       ^          ^       ^         ^             
   Q.      Q.         Q.      Q.         Q.      Q.        H.            
--10------12------|--10------12------|--10------12------|--7------------|
--10------10------|--10------10------|--10------10------|--7------------|
--10-------9------|--10-------9------|--10-------9------|--8------------|
------------------|------------------|------------------|--9------------|
------------------|------------------|------------------|---------------|
------------------|------------------|------------------|---------------|


   ^             ^                ^             ^             
   E   S  S  E   E   S  S  E      E   S  S  E   E   S  S  E   
--10--------10--12--------12--|--10--------10--12--------12--|
--10--12-10-----10--12-10-----|--10--12-10-----10--12-10-----|
--10-------------9------------|--10-------------9------------|
------------------------------|------------------------------|
------------------------------|------------------------------|
------------------------------|------------------------------|


   ^             ^               ^                                       
   E   S  S  E   E   S  S  E     E  S  S Q     S  S  E     H.            
--10--------10--12--------12--|--7--7---------------14--|---------------|
--10--12-10-----10--12-10-----|--7----10------12--------|---------------|
--10-------------9------------|--8-------8-------14-----|---------------|
------------------------------|--9----------------------|---------------|
------------------------------|-------------------------|---------------|
------------------------------|-------------------------|---------------|


  H.               Q     E   E.   S  E      E.   S  E   Q.      
---------------|------------------------|----------------------|
---------------|--12----14--15---14-15--|--12------12----------|
---------------|------------------------|-------14-------------|
---------------|------------------------|--------------14------|
---------------|------------------------|----------------------|
---------------|------------------------|----------------------|


   Q     E   Q     E       Q.      E   E   E      Q     E   E.   S  E   
------------10----15s--|--12------12--13--12--|------------------------|
--------10-------------|----------------------|--12----14--15---14-15--|
--10-------------------|----------------------|------------------------|
-----------------------|----------------------|------------------------|
-----------------------|----------------------|------------------------|
-----------------------|----------------------|------------------------|


   E.   S  E   Q.         Q     E   Q     E       Q.     E  E  E   
----------------------|------------10----15s--|--12---------------|
--12------12----------|--------10-------------|----------5--6--8--|
-------14-------------|--10-------------------|-------------------|
--------------14------|-----------------------|-------------------|
----------------------|-----------------------|-------------------|
----------------------|-----------------------|-------------------|


  Q    E  Q      E      E.  S  E  Q    E     H.              Q.     Q.      
--5----6--8s----10--|---------------------|---------------|----------------|
--------------------|--10---8-10-------8--|---------------|--7-------------|
--------------------|-------------7-------|--9------------|---------8------|
--------------------|---------------------|---------------|----------------|
--------------------|---------------------|---------------|----------------|
--------------------|---------------------|---------------|----------------|


                                       ^  ^ v    ^  ^ v       ^  ^ v    ^  ^ v  
  H.              H.                E  E  S S E  E  S S    E  E  S S E  E  S S  
---------------|----------------||-----0--0-0----0--0-0-|-----0--0-0----0--0-0-|
---------------|----------------||-----0--0-0----0--0-0-|-----0--0-0----0--0-0-|
--L------------|---------------*||-----0--0-0----0--0-0-|-----0--0-0----0--0-0-|
---------------|---------------*||-----4----4----4----4-|-----4----4----4----4-|
---------------|----------------||-----2----2----2----2-|-----2----2----2----2-|
---------------|----------------||--0---------0---------|--0---------0---------|


     ^  ^ v    ^  ^ v       ^  ^ v    ^  ^ v    ^  ^  v  ^  ^  ^   
  E  E  S S E  E  S S    E  E  S S E  E  S S    E  E  E  E  E  E   
-----0--0-0----0--0-0-|-----0--0-0----0--0-0-|--0--0--0--0--0--0--|
-----0--0-0----0--0-0-|-----0--0-0----0--0-0-|--6--6--6--6--6--6--|
-----0--0-0----0--0-0-|-----0--0-0----0--0-0-|--2--2--2--2--2--2--|
-----4----4----4----4-|-----4----4----4----4-|--0--0--0--0--0--0--|
-----2----2----2----2-|-----2----2----2----2-|--0--0--0--0--0--0--|
--0---------0---------|--0---------0---------|--------------------|


  ^  ^  v  ^  ^  ^        ^  ^ v    ^  ^ v       ^  ^ v    ^  ^ v  
  E  E  E  E  E  E     E  E  S S E  E  S S    E  E  S S E  E  S S  
--0--0--0--0--0--0--|-----0--0-0----0--0-0-|-----0--0-0----0--0-0-|
--6--6--6--6--6--6--|-----0--0-0----0--0-0-|-----0--0-0----0--0-0-|
--2--2--2--2--2--2--|-----0--0-0----0--0-0-|-----0--0-0----0--0-0-|
--0--0--0--0--0--0--|-----4----4----4----4-|-----4----4----4----4-|
--0--0--0--0--0--0--|-----2----2----2----2-|-----2----2----2----2-|
--------------------|--0---------0---------|--0---------0---------|


  ^  ^  v  ^  ^  ^     ^  ^  v  ^         ^  ^  ^  ^  ^  ^   
  E  E  E  E  E  E     E  E  E  Q.        E  E  E  E  E  E   
--0--0--0--0--0--0--|--0--0--0--0------|--3--3--3--3--3--3--|
--6--6--6--6--6--6--|--6--6--6--6------|--4--4--4--4--4--4--|
--2--2--2--2--2--2--|--2--2--2--2------|--5--5--5--5--5--5--|
--0--0--0--0--0--0--|--0--0--0--0------|--5--5--5--5--5--5--|
--0--0--0--0--0--0--|--0--0--0--0------|--3--3--3--3--3--3--|
--------------------|------------------|--------------------|


  ^  ^  ^  ^  ^  ^     ^  ^  ^  ^  ^  ^     ^  ^  ^  ^                       
  E  E  E  E  E  E     E  E  E  E  E  E     E  E  E  Q.        H.            
--3--3--3--3--3--3--|--------------------|------------------|---------------|
--4--4--4--4--4--4--|--0--0--0--0--0--0--|-----5--5--4------|---------------|
--5--5--5--5--5--5--|--2--2--2--2--2--2--|--4--4--4--4------|---------------|
--5--5--5--5--5--5--|--2--2--2--2--2--2--|--4--4--4--4------|---------------|
--3--3--3--3--3--3--|--0--0--0--0--0--0--|--2--2--2--2------|---------------|
--------------------|--------------------|------------------|---------------|


          ^                 ^                 ^                        
  Q.      Q.        Q.      Q.        Q.      Q.        H.             
---------12------|---------12------|---------12------|---------------||
---------10------|---------10------|---------10------|---------------||
---------12------|---------12------|---------12------|---------------||
---------14------|---------14------|---------14------|---------------||
-----------------|-----------------|-----------------|---------------||
-----------------|-----------------|-----------------|---------------||
Login or Register to remove this ad.