Boss Battle 2 (Chrono Trigger) Bass/Guitar Tab

Submitted: Jan 03, 2010 by auriplane (Last updated: Apr 05, 2010)

5
Average: 5 (5 votes)
Download | Listen
Game: Chrono Trigger
Composer(s): Nobuo Uematsu, Yasunori Mitsuda, Noriko Matsueda
Style: 2 or more instruments, Alternate picking, Transcription
Series: Chrono

AutoScroll: Slow | Medium | Fast
                    Chrono Trigger - Boss Battle 2 GUITAR TAB
                           Composed by Yasunori Mitsuda 

                    Tabbed by auriplane ([email protected])




1st Trumpet


                                                        |---3---|             
     W                   Q     Q     H            Q     E   E   E   H         
E||-------------------|-------17----15--------|--14----14--14--14--13--------|
B||-------------------|-----------------------|------------------------------|
G||-------------------|-----------------------|------------------------------|
D||-------------------|-----------------------|------------------------------|
A||-------------------|-----------------------|------------------------------|
E||-------------------|-----------------------|------------------------------|


                               |--3--|  |---3---|             
  Q     Q     H            E   S  S  S  E   E   E  Q    Q     
-------12----11--------|--10---L-10-10-10--10--10--9----9----|
-----------------------|-------------------------------------|
-----------------------|-------------------------------------|
-----------------------|-------------------------------------|
-----------------------|-------------------------------------|
-----------------------|-------------------------------------|


                                 |---3---|                                     
  Q     Q     H            Q     E   E   E   H           Q     Q     H         
-------17----15--------|--14----14--14--14--13--------|-------12----11--------|
-----------------------|------------------------------|-----------------------|
-----------------------|------------------------------|-----------------------|
-----------------------|------------------------------|-----------------------|
-----------------------|------------------------------|-----------------------|
-----------------------|------------------------------|-----------------------|


       |--3--|  |---3---|                       |---3---|                 
   E   S  S  S  E   E   E  Q    Q         Q     E   E   E   Q     E   E   
--10---L-10-10-10--10--10--9----9----||--------13------11--10-----L------|
-------------------------------------||------------11----------------11--|
-------------------------------------||*---------------------------------|
-------------------------------------||*---------------------------------|
-------------------------------------||----------------------------------|
-------------------------------------||----------------------------------|


   |---3---|                            |---3---|                 
   E   E   E   Q     Q    Q       Q     E   E   E   Q     E   E   
-------------------------------|-------13------11--10-----L------|
--13---------------------------|-----------11----------------11--|
------10-----------------------|---------------------------------|
----------13--12-----L---------|---------------------------------|
-------------------------------|---------------------------------|
-------------------------------|---------------------------------|


   |---3---|                 |---3---|           |---3---|                 
   E   E   E   Q     E   E   E   E   E     Q     E   E   E   Q     E   E   
--------------18-----L--18--20--18--16--|-------13------11--10-----L------|
--13--15--16----------------------------|-----------11----------------11--|
----------------------------------------|---------------------------------|
----------------------------------------|---------------------------------|
----------------------------------------|---------------------------------|
----------------------------------------|---------------------------------|


   |---3---|                            |---3---|                 
   E   E   E   Q     Q    Q       Q     E   E   E   Q     E   E   
-------------------------------|-------13------11--10-----L------|
--13---------------------------|-----------11----------------11--|
------10-----------------------|---------------------------------|
----------13--12-----L---------|---------------------------------|
-------------------------------|---------------------------------|
-------------------------------|---------------------------------|


   |---3---|                 |---3---|           |---3---|        |---3---|   
   E   E   E   Q     E   E   E   E   E     Q     E   E   E   Q    E   E   E   
--------------18-----L--18--20--18--16--|-------15--13--15-------------------|
--13--15--16----------------------------|-------------------13-------11--13--|
----------------------------------------|------------------------------------|
----------------------------------------|------------------------------------|
----------------------------------------|------------------------------------|
----------------------------------------|------------------------------------|


         |---3---|                      |---3---|                 
   Q     E   E   E   Q    Q       Q     E   E   E   Q     E   E   
--11----11------11--13---------|-------11------11----------------|
------------13-----------------|-----------15------15-----L--11--|
-------------------------------|---------------------------------|
-------------------------------|---------------------------------|
-------------------------------|---------------------------------|
-------------------------------|---------------------------------|


                                |---3---|        |---3---|   
   H.           Q       E   E   E   E   E   Q    E   E   E   
---------------------|---------15--13--15-------------------|
---------------------|-----13--------------13-------11--13--|
--12-----------------|--------------------------------------|
---------------------|--------------------------------------|
---------------------|--------------------------------------|
---------------------|--------------------------------------|


         |---3---|                      |---3---|          
   Q     E   E   E   Q    Q       Q     E   E   E   E  E   
--11----11------11--13---------|-------15--16--17--18-----|
------------13-----------------|--------------------------|
-------------------------------|--------------------------|
-------------------------------|--------------------------|
-------------------------------|--------------------------|
-------------------------------|--------------------------|


   |---3---|                       |---3---|          
   E   E   E   E  E  Q       Q     E   E   E   E  E   
--15--16--17--18----------|-------15--16--17--18-----|
--------------------------|--------------------------|
--------------------------|--------------------------|
--------------------------|--------------------------|
--------------------------|--------------------------|
--------------------------|--------------------------|


   |---3---|                       |---3---|          
   E   E   E   E  E  Q       Q     E   E   E   E  E   
--15--16--17--18----------|-------15--16--17--18-----|
--------------------------|--------------------------|
--------------------------|--------------------------|
--------------------------|--------------------------|
--------------------------|--------------------------|
--------------------------|--------------------------|


   |---3---|                       |---3---|          
   E   E   E   E  E  Q       Q     E   E   E   E  E   
--15--16--17--18----------|-------15--16--17--18-----|
--------------------------|--------------------------|
--------------------------|--------------------------|
--------------------------|--------------------------|
--------------------------|--------------------------|
--------------------------|--------------------------|


   |---3---|                  |---3---|   |---3---|   |---3---|   |---3---|   
   E   E   E   E  E  Q        E   E   E   E   E   E   E   E   E   E   E   E   
--15--16--17--18----------|--18--17------16--15------14--13------12--11------|
--------------------------|----------18----------16----------14----------12--|
--------------------------|--------------------------------------------------|
--------------------------|--------------------------------------------------|
--------------------------|--------------------------------------------------|
--------------------------|--------------------------------------------------|


          |--3--|                 |---3--|                  
  Q       E  E  E  Q    E  E      E  E   E  Q    Q    Q     
-------9g10-----8--7----L-----|----------------------------|
-------------8-------------8--|--10------------------------|
------------------------------|------7---------------------|
------------------------------|---------10--9----L---------|
------------------------------|----------------------------|
------------------------------|----------------------------|


          |--3--|                 |---3---|                 |---3---|   
  Q       E  E  E  Q    E  E      E   E   E   Q     E   E   E   E   E   
-------9g10-----8--7----L-----|--------------15-----L--15--17--15--13--|
-------------8-------------8--|--10--12--13----------------------------|
------------------------------|----------------------------------------|
------------------------------|----------------------------------------|
------------------------------|----------------------------------------|
------------------------------|----------------------------------------|


          |--3--|                 |---3--|                  
  Q       E  E  E  Q    E  E      E  E   E  Q    Q    Q     
-------9g10-----8--7----L-----|----------------------------|
-------------8-------------8--|--10------------------------|
------------------------------|------7---------------------|
------------------------------|---------10--9----L---------|
------------------------------|----------------------------|
------------------------------|----------------------------|


          |--3--|                 |---3---|                 |---3---|   
  Q       E  E  E  Q    E  E      E   E   E   Q     E   E   E   E   E   
-------9g10-----8--7----L-----|--------------15-----L--15--17--15--13--|
-------------8-------------8--|--10--12--13----------------------------|
------------------------------|----------------------------------------|
------------------------------|----------------------------------------|
------------------------------|----------------------------------------|
------------------------------|----------------------------------------|


        |---3---|        |---3--|          |---3--|             
  Q     E   E   E   Q    E  E   E     Q    E   E  E   H         
-------12--10--12------------------|--8----8------8--10--------|
-------------------10-------8--10--|----------10---------------|
-----------------------------------|---------------------------|
-----------------------------------|---------------------------|
-----------------------------------|---------------------------|
-----------------------------------|---------------------------|


       |---3--|                                     
  Q    E   E  E   Q     E  E     H.           Q     
-------8------8---------------|--------------------|
----------12-----12-----L--8--|--------------------|
------------------------------|--9-----------------|
------------------------------|--------------------|
------------------------------|--------------------|
------------------------------|--------------------|


        |---3---|        |---3--|          |---3--|             
  Q     E   E   E   Q    E  E   E     Q    E   E  E   H         
-------12--10--12------------------|--8----8------8--10--------|
-------------------10-------8--10--|----------10---------------|
-----------------------------------|---------------------------|
-----------------------------------|---------------------------|
-----------------------------------|---------------------------|
-----------------------------------|---------------------------|


   |---3---|   |---3---|             |---3---|   |---3---|          
   E   E   E   E   E   E   E  E      E   E   E   E   E   E   E  E   
--12--14--15--17--15--14--12-----|--10--11--13--15--13--11--10-----|
---------------------------------|---------------------------------|
---------------------------------|---------------------------------|
---------------------------------|---------------------------------|
---------------------------------|---------------------------------|
---------------------------------|---------------------------------|


  |---3--|   |--3--|  |---3--|   |---3---|   
  E   E  E   E  E  E  E  E   E   E   E   E   
-----10-----10-----------8--10--10--10--10--|
--------------------------------------------|
--------------------------------------------|
--------------------------------------------|
--------------------------------------------|
--------------------------------------------|


  |---3--|   |--3--|  |---3--|   |---3---|   
  E   E  E   E  E  E  E  E   E   E   E   E   
-----10-----10-----------8--10--10--10--10--|
--------------------------------------------|
--------------------------------------------|
--------------------------------------------|
--------------------------------------------|
--------------------------------------------|


  |---3--|   |--3--|  |---3--|   |---3---|   
  E   E  E   E  E  E  E  E   E   E   E   E   
-----10-----10-----------8--10--10--10--10--|
--------------------------------------------|
--------------------------------------------|
--------------------------------------------|
--------------------------------------------|
--------------------------------------------|


  |---3--|   |--3--|  |---3--|   |---3---|     
  E   E  E   E  E  E  E  E   E   E   E   E     
-----10-----10-----------8--10--10--10--10---||
---------------------------------------------||
--------------------------------------------*||
--------------------------------------------*||
---------------------------------------------||
---------------------------------------------||



2nd Trumpet

                                                      |--3--|            
     W                   Q     Q     H           Q    E  E  E  H         
E||-------------------|-------12----11--------|--9----9--9--9--8--------|
B||-------------------|-----------------------|-------------------------|
G||-------------------|-----------------------|-------------------------|
D||-------------------|-----------------------|-------------------------|
A||-------------------|-----------------------|-------------------------|
E||-------------------|-----------------------|-------------------------|


                              |--3--|  |---3---|             
  Q     Q     H            E  S  S  S  E   E   E  Q    Q     
-----------------------|------------------------------------|
-------12----11--------|--10--L-10-10-10--10--10--9----9----|
-----------------------|------------------------------------|
-----------------------|------------------------------------|
-----------------------|------------------------------------|
-----------------------|------------------------------------|


                               |--3--|                                    
  Q     Q     H           Q    E  E  E  H           Q     Q     H         
-------12----11--------|--9----9--9--9--8--------|-----------------------|
-----------------------|-------------------------|-------12----11--------|
-----------------------|-------------------------|-----------------------|
-----------------------|-------------------------|-----------------------|
-----------------------|-------------------------|-----------------------|
-----------------------|-------------------------|-----------------------|


      |--3--|  |---3---|                                                       
   E  S  S  S  E   E   E  Q    Q         W                   W                 
------------------------------------||--------------------|-------------------|
--10--L-10-10-10--10--10--9----9----||--------------------|-------------------|
------------------------------------||*-------------------|-------------------|
------------------------------------||*-------------------|-------------------|
------------------------------------||--------------------|-------------------|
------------------------------------||--------------------|-------------------|


                                    |---3---|                       
  W                   H.            E   E   E     W                 
-------------------|---------------15--13------|-------------------|
-------------------|-----------------------16--|-------------------|
-------------------|---------------------------|-------------------|
-------------------|---------------------------|-------------------|
-------------------|---------------------------|-------------------|
-------------------|---------------------------|-------------------|


                                                        |---3---|   
  W                   W                   H.            E   E   E   
-------------------|-------------------|---------------15--13------|
-------------------|-------------------|-----------------------16--|
-------------------|-------------------|---------------------------|
-------------------|-------------------|---------------------------|
-------------------|-------------------|---------------------------|
-------------------|-------------------|---------------------------|


  W                   W                   W                   W                 
-------------------|-------------------|-------------------|-------------------|
-------------------|-------------------|-------------------|-------------------|
-------------------|-------------------|-------------------|-------------------|
-------------------|-------------------|-------------------|-------------------|
-------------------|-------------------|-------------------|-------------------|
-------------------|-------------------|-------------------|-------------------|


                                                |---3---|          
  W                   W                   Q     E   E   E   E  E   
-------------------|-------------------|--------------------------|
-------------------|-------------------|-------15--16--17--18-----|
-------------------|-------------------|--------------------------|
-------------------|-------------------|--------------------------|
-------------------|-------------------|--------------------------|
-------------------|-------------------|--------------------------|


   |---3---|                       |---3---|          
   E   E   E   E  E  Q       Q     E   E   E   E  E   
--------------------------|--------------------------|
--15--16--17--18----------|-------15--16--17--18-----|
--------------------------|--------------------------|
--------------------------|--------------------------|
--------------------------|--------------------------|
--------------------------|--------------------------|


   |---3---|                       |---3---|          
   E   E   E   E  E  Q       Q     E   E   E   E  E   
--------------------------|--------------------------|
--15--16--17--18----------|-------15--16--17--18-----|
--------------------------|--------------------------|
--------------------------|--------------------------|
--------------------------|--------------------------|
--------------------------|--------------------------|


   |---3---|                       |---3---|          
   E   E   E   E  E  Q       Q     E   E   E   E  E   
--------------------------|--------------------------|
--15--16--17--18----------|-------15--16--17--18-----|
--------------------------|--------------------------|
--------------------------|--------------------------|
--------------------------|--------------------------|
--------------------------|--------------------------|


   |---3---|                  |---3---|   |---3---|  |--3--|  |--3--|   
   E   E   E   E  E  Q        E   E   E   E   E   E  E  E  E  E  E  E   
--------------------------|--13--12------11--10------9--8-----7--6-----|
--15--16--17--18----------|----------13----------11--------9--------7--|
--------------------------|--------------------------------------------|
--------------------------|--------------------------------------------|
--------------------------|--------------------------------------------|
--------------------------|--------------------------------------------|


  W                   W                   W                 
-------------------|-------------------|-------------------|
-------------------|-------------------|-------------------|
-------------------|-------------------|-------------------|
-------------------|-------------------|-------------------|
-------------------|-------------------|-------------------|
-------------------|-------------------|-------------------|


                |---3--|                                           
  H.            E   E  E     W                   W                 
---------------12--10--8--|-------------------|-------------------|
--------------------------|-------------------|-------------------|
--------------------------|-------------------|-------------------|
--------------------------|-------------------|-------------------|
--------------------------|-------------------|-------------------|
--------------------------|-------------------|-------------------|


                                    |---3--|                       
  W                   H.            E   E  E     W                 
-------------------|---------------12--10--8--|-------------------|
-------------------|--------------------------|-------------------|
-------------------|--------------------------|-------------------|
-------------------|--------------------------|-------------------|
-------------------|--------------------------|-------------------|
-------------------|--------------------------|-------------------|


  W                   W                   W                   W                 
-------------------|-------------------|-------------------|-------------------|
-------------------|-------------------|-------------------|-------------------|
-------------------|-------------------|-------------------|-------------------|
-------------------|-------------------|-------------------|-------------------|
-------------------|-------------------|-------------------|-------------------|
-------------------|-------------------|-------------------|-------------------|


                      |---3--|   |---3--|           |--3--|   |--3--|         
  W                   E  E   E   E   E  E  E  E     E  E  E   E  E  E  E  E   
-------------------|--7--8--10--12--10--8--7-----|--5--6--8--10--8--6--5-----|
-------------------|-----------------------------|---------------------------|
-------------------|-----------------------------|---------------------------|
-------------------|-----------------------------|---------------------------|
-------------------|-----------------------------|---------------------------|
-------------------|-----------------------------|---------------------------|


  |--3--|  |--3--|  |--3--|  |--3--|     |--3--|  |--3--|  |--3--|  |--3--|   
  E  E  E  E  E  E  E  E  E  E  E  E     E  E  E  E  E  E  E  E  E  E  E  E   
-----5-----5-----------3--5--5--5--5--|-----5-----5-----------3--5--5--5--5--|
--------------------------------------|--------------------------------------|
--------------------------------------|--------------------------------------|
--------------------------------------|--------------------------------------|
--------------------------------------|--------------------------------------|
--------------------------------------|--------------------------------------|


  |--3--|  |--3--|  |--3--|  |--3--|     |--3--|  |--3--|  |--3--|  |--3--|     
  E  E  E  E  E  E  E  E  E  E  E  E     E  E  E  E  E  E  E  E  E  E  E  E     
-----5-----5-----------3--5--5--5--5--|-----5-----5-----------3--5--5--5--5---||
--------------------------------------|---------------------------------------||
--------------------------------------|--------------------------------------*||
--------------------------------------|--------------------------------------*||
--------------------------------------|---------------------------------------||
--------------------------------------|---------------------------------------||



3rd Trumpet

                                                    |--3--|            
     W                   Q    Q    H           Q    E  E  E  H         
E||-------------------|-------8----6--------|--6----6--6--6--5--------|
B||-------------------|---------------------|-------------------------|
G||-------------------|---------------------|-------------------------|
D||-------------------|---------------------|-------------------------|
A||-------------------|---------------------|-------------------------|
E||-------------------|---------------------|-------------------------|


                           |-3-| |--3--|                                   
  Q    Q    H           E  S S S E  E  E  Q    Q       Q    Q    H         
---------------------|------------------------------|-------8----6--------|
-------9----8--------|--7--L-7-7-7--7--7--6----6----|---------------------|
---------------------|------------------------------|---------------------|
---------------------|------------------------------|---------------------|
---------------------|------------------------------|---------------------|
---------------------|------------------------------|---------------------|


       |--3--|                                       |-3-| |--3--|             
  Q    E  E  E  H           Q    Q    H           E  S S S E  E  E  Q    Q     
--6----6--6--6--5--------|---------------------|------------------------------|
-------------------------|-------9----8--------|--7--L-7-7-7--7--7--6----6----|
-------------------------|---------------------|------------------------------|
-------------------------|---------------------|------------------------------|
-------------------------|---------------------|------------------------------|
-------------------------|---------------------|------------------------------|


    W                   W                   W                 
|--------------------|-------------------|-------------------|
|--------------------|-------------------|-------------------|
|*-------------------|-------------------|-------------------|
|*-------------------|-------------------|-------------------|
|--------------------|-------------------|-------------------|
|--------------------|-------------------|-------------------|


  W                   W                   W                   W                 
-------------------|-------------------|-------------------|-------------------|
-------------------|-------------------|-------------------|-------------------|
-------------------|-------------------|-------------------|-------------------|
-------------------|-------------------|-------------------|-------------------|
-------------------|-------------------|-------------------|-------------------|
-------------------|-------------------|-------------------|-------------------|


  W                   W                   W                   W                 
-------------------|-------------------|-------------------|-------------------|
-------------------|-------------------|-------------------|-------------------|
-------------------|-------------------|-------------------|-------------------|
-------------------|-------------------|-------------------|-------------------|
-------------------|-------------------|-------------------|-------------------|
-------------------|-------------------|-------------------|-------------------|


  W                   W                   W                 
-------------------|-------------------|-------------------|
-------------------|-------------------|-------------------|
-------------------|-------------------|-------------------|
-------------------|-------------------|-------------------|
-------------------|-------------------|-------------------|
-------------------|-------------------|-------------------|


       |---3--|            |---3--|                      |---3--|          
  Q    E  E   E   E  E     E  E   E   E  E  Q       Q    E  E   E   E  E   
-------8--9--10--11-----|--8--9--10--11----------|-------8--9--10--11-----|
------------------------|------------------------|------------------------|
------------------------|------------------------|------------------------|
------------------------|------------------------|------------------------|
------------------------|------------------------|------------------------|
------------------------|------------------------|------------------------|


  |---3--|                      |---3--|            |---3--|               
  E  E   E   E  E  Q       Q    E  E   E   E  E     E  E   E   E  E  Q     
--8--9--10--11----------|-------8--9--10--11-----|--8--9--10--11----------|
------------------------|------------------------|------------------------|
------------------------|------------------------|------------------------|
------------------------|------------------------|------------------------|
------------------------|------------------------|------------------------|
------------------------|------------------------|------------------------|


       |---3--|            |---3--|               
  Q    E  E   E   E  E     E  E   E   E  E  Q     
-------8--9--10--11-----|--8--9--10--11----------|
------------------------|------------------------|
------------------------|------------------------|
------------------------|------------------------|
------------------------|------------------------|
------------------------|------------------------|


   |---3---|  |--3--|  |--3--|  |--3--|                       
   E   E   E  E  E  E  E  E  E  E  E  E     W                 
--11--10------9--8-----7--6-----5--4-----|-------------------|
----------11--------9--------7--------5--|-------------------|
-----------------------------------------|-------------------|
-----------------------------------------|-------------------|
-----------------------------------------|-------------------|
-----------------------------------------|-------------------|


  W                   W                   W                   W                 
-------------------|-------------------|-------------------|-------------------|
-------------------|-------------------|-------------------|-------------------|
-------------------|-------------------|-------------------|-------------------|
-------------------|-------------------|-------------------|-------------------|
-------------------|-------------------|-------------------|-------------------|
-------------------|-------------------|-------------------|-------------------|


  W                   W                   W                   W                 
-------------------|-------------------|-------------------|-------------------|
-------------------|-------------------|-------------------|-------------------|
-------------------|-------------------|-------------------|-------------------|
-------------------|-------------------|-------------------|-------------------|
-------------------|-------------------|-------------------|-------------------|
-------------------|-------------------|-------------------|-------------------|


  W                   W                   W                   W                 
-------------------|-------------------|-------------------|-------------------|
-------------------|-------------------|-------------------|-------------------|
-------------------|-------------------|-------------------|-------------------|
-------------------|-------------------|-------------------|-------------------|
-------------------|-------------------|-------------------|-------------------|
-------------------|-------------------|-------------------|-------------------|


                      |--3--|   |--3--|           |--3--|  |--3--|         
  W                   E  E  E   E  E  E  E  E     E  E  E  E  E  E  E  E   
-------------------|--5--6--8--10--8--6--5-----|--3--5--6--8--6--5--3-----|
-------------------|---------------------------|--------------------------|
-------------------|---------------------------|--------------------------|
-------------------|---------------------------|--------------------------|
-------------------|---------------------------|--------------------------|
-------------------|---------------------------|--------------------------|


  |--3--|  |--3--|  |--3--|  |--3--|     |--3--|  |--3--|  |--3--|  |--3--|   
  E  E  E  E  E  E  E  E  E  E  E  E     E  E  E  E  E  E  E  E  E  E  E  E   
-----3-----3-----------1--3--3--3--3--|-----3-----3-----------1--3--3--3--3--|
--------------------------------------|--------------------------------------|
--------------------------------------|--------------------------------------|
--------------------------------------|--------------------------------------|
--------------------------------------|--------------------------------------|
--------------------------------------|--------------------------------------|


  |--3--|  |--3--|  |--3--|  |--3--|     |--3--|  |--3--|  |--3--|  |--3--|     
  E  E  E  E  E  E  E  E  E  E  E  E     E  E  E  E  E  E  E  E  E  E  E  E     
-----3-----3-----------1--3--3--3--3--|-----3-----3-----------1--3--3--3--3---||
--------------------------------------|---------------------------------------||
--------------------------------------|--------------------------------------*||
--------------------------------------|--------------------------------------*||
--------------------------------------|---------------------------------------||
--------------------------------------|---------------------------------------||



Bass

     W                   H        H           H        H         
G||-------------------|--------------------|--------------------|
D||-------------------|--------------------|--1--------0--------|
A||-------------------|--0--------3--------|--------------------|
E||-------------------|--------------------|--------------------|


  H        H           H        H           H        H         
--------------------|--------------------|--------------------|
--------------------|--------------------|--------------------|
--4--------3--------|--2--------1--------|--0--------3--------|
--------------------|--------------------|--------------------|


  H        H           H        H           H        H         
--------------------|--------------------|--------------------|
--1--------0--------|--------------------|--------------------|
--------------------|--4--------3--------|--2--------1--------|
--------------------|--------------------|--------------------|


    E  E  E  E  E  E  E  E     E  E  E  E  E  E  E  E   
|---------------------------|--------------------------|
|*--------------------------|--------------------------|
|*--------------------------|--------------------------|
|---3--3--3--3--3--3--3--3--|--3--3--3--3--3--3--3--3--|


  E  E  E  E  E  E  E  E     E  E  E  E  E  E  E  E   
--------------------------|--------------------------|
--------------------------|--------------------------|
--------------------------|--------------------------|
--3--3--3--3--3--3--3--3--|--4--4--4--4--4--4--4--4--|


  E  E  E  E  E  E  E  E     E  E  E  E  E  E  E  E   
--------------------------|--------------------------|
--------------------------|--------------------------|
--------------------------|--------------------------|
--3--3--3--3--3--3--3--3--|--3--3--3--3--3--3--3--3--|


  E  E  E  E  E  E  E  E     E  E  E  E  E  E  E  E   
--------------------------|--------------------------|
--------------------------|--------------------------|
--------------------------|--------------------------|
--3--3--3--3--3--3--3--3--|--4--4--4--4--4--4--4--4--|


  E  E  E  E  E  E  E  E     E  E  E  E  E  E  E  E   
--------------------------|--------------------------|
--------------------------|--------------------------|
--4--4--4--4--4--4--4--4--|--4--4--4--4--4--4--4--4--|
--------------------------|--------------------------|


  E  E  E  E  E  E  E  E     E  E  E  E  E  E  E  E   
--------------------------|--------------------------|
--------------------------|--------------------------|
--3--3--3--3--3--3--3--3--|--3--3--3--3--3--3--3--3--|
--------------------------|--------------------------|


                                                             |--3--|        
  E  E  E  E  E  E  E  E     E  E  E  E  E  E  E  E     Q    E  E  E  Q     
--------------------------|--------------------------|---------------------|
--------------------------|--------------------------|---------------------|
--4--4--4--4--4--4--4--4--|--4--4--4--4--4--4--4--4--|---------------------|
--------------------------|--------------------------|--3----3--4--5--6----|


  |--3--|  |--3--|               |--3--|          |--3--|  |--3--|        
  E  E  E  E  E  E  Q       Q    E  E  E  Q       E  E  E  E  E  E  Q     
-------------------------|---------------------|-------------------------|
-------------------------|---------------------|-------------------------|
-------------------------|---------------------|-------------------------|
--3--4--5--6--5--4--3----|--3----3--4--5--6----|--3--4--5--6--5--4--3----|


       |--3--|          |--3--|  |--3--|               |--3--|        
  Q    E  E  E  Q       E  E  E  E  E  E  Q       Q    E  E  E  Q     
---------------------|-------------------------|---------------------|
---------------------|-------------------------|---------------------|
---------------------|-------------------------|---------------------|
--3----3--4--5--6----|--3--4--5--6--5--4--3----|--3----3--4--5--6----|


  |--3--|  |--3--|                                                          
  E  E  E  E  E  E  Q       Q    Q    Q    Q       E  E  E  E  E  E  E  E   
-------------------------|----------------------|--------------------------|
-------------------------|----------------------|--2--2--2--2--2--2--2--2--|
-------------------------|--6----4----3----2----|--------------------------|
--3--4--5--6--5--4--3----|----------------------|--------------------------|


  E  E  E  E  E  E  E  E     E  E  E  E  E  E  E  E   
--------------------------|--------------------------|
--2--2--2--2--2--2--2--2--|--2--2--2--2--2--2--2--2--|
--------------------------|--------------------------|
--------------------------|--------------------------|


  E  E  E  E  E  E  E  E     E  E  E  E  E  E  E  E   
--------------------------|--------------------------|
--3--3--3--3--3--3--3--3--|--2--2--2--2--2--2--2--2--|
--------------------------|--------------------------|
--------------------------|--------------------------|


  E  E  E  E  E  E  E  E     E  E  E  E  E  E  E  E   
--------------------------|--------------------------|
--2--2--2--2--2--2--2--2--|--2--2--2--2--2--2--2--2--|
--------------------------|--------------------------|
--------------------------|--------------------------|


  E  E  E  E  E  E  E  E     E  E  E  E  E  E  E  E   
--------------------------|--------------------------|
--3--3--3--3--3--3--3--3--|--------------------------|
--------------------------|--1--1--1--1--1--1--1--1--|
--------------------------|--------------------------|


  E  E  E  E  E  E  E  E     E  E  E  E  E  E  E  E   
--------------------------|--------------------------|
--------------------------|--------------------------|
--1--1--1--1--1--1--1--1--|--0--0--0--0--0--0--0--0--|
--------------------------|--------------------------|


  E  E  E  E  E  E  E  E     E  E  E  E  E  E  E  E   
--------------------------|--------------------------|
--------------------------|--------------------------|
--0--0--0--0--0--0--0--0--|--1--1--1--1--1--1--1--1--|
--------------------------|--------------------------|


                                   |--3--|                |--3--|        
  E  E  E  E  E  E  E  E     E  E  E  E  E  Q       E  E  E  E  E  Q     
--------------------------|----------------------|-----------3----------|
--------------------------|-----------2----------|--1--1--1-----1--1----|
--1--1--1--1--1--1--1--1--|--0--0--0-----0--0----|----------------------|
--------------------------|----------------------|----------------------|


  E  E  E  E  E  E  E  E     E  E  E  E  E  E  E  E   
--------------------------|--------------------------|
--0--0--0--0--0--0--0--0--|--0--0--0--0--0--0--0--0--|
--------------------------|--------------------------|
--------------------------|--------------------------|


  E  E  E  E  E  E  E  E     E  E  E  E  E  E  E  E     
--------------------------|---------------------------||
--0--0--0--0--0--0--0--0--|--0--0--0--0--0--0--0--0--*||
--------------------------|--------------------------*||
--------------------------|---------------------------||



Flute

     W                   W                   W                 
E||-------------------|-------------------|-------------------|
B||-------------------|-------------------|-------------------|
G||-------------------|-------------------|-------------------|
D||-------------------|-------------------|-------------------|
A||-------------------|-------------------|-------------------|
E||-------------------|-------------------|-------------------|


  W                   W                   W                   W                 
-------------------|-------------------|-------------------|-------------------|
-------------------|-------------------|-------------------|-------------------|
-------------------|-------------------|-------------------|-------------------|
-------------------|-------------------|-------------------|-------------------|
-------------------|-------------------|-------------------|-------------------|
-------------------|-------------------|-------------------|-------------------|


  W                   W                 
-------------------|-------------------|
-------------------|-------------------|
-------------------|-------------------|
-------------------|-------------------|
-------------------|-------------------|
-------------------|-------------------|


     |---3---|   |---3---|   |---3---|   |---3---|   
     E   E   E   E   E   E   E   E   E   E   E   E   
|---20--18--20--18--17--18--17--15------15------15--|
|-----------------------------------18------18------|
|*--------------------------------------------------|
|*--------------------------------------------------|
|---------------------------------------------------|
|---------------------------------------------------|


   |---3---|   |---3---|   |---3---|   |---3---|   
   E   E   E   E   E   E   E   E   E   E   E   E   
--20--18--20--18--17--18--17--15------15----------|
----------------------------------18------18--15--|
--------------------------------------------------|
--------------------------------------------------|
--------------------------------------------------|
--------------------------------------------------|


   |---3---|   |---3---|   |---3---|   |---3---|   
   E   E   E   E   E   E   E   E   E   E   E   E   
--20--18--20--18--17--18--17--15------15------15--|
----------------------------------18------18------|
--------------------------------------------------|
--------------------------------------------------|
--------------------------------------------------|
--------------------------------------------------|


   |---3---|   |---3---|   |---3---|   |---3---|   
   E   E   E   E   E   E   E   E   E   E   E   E   
--20--18--20--18--16--18--16--15------15----------|
----------------------------------18------18--16--|
--------------------------------------------------|
--------------------------------------------------|
--------------------------------------------------|
--------------------------------------------------|


   |---3---|   |---3---|   |---3---|   |---3---|   
   E   E   E   E   E   E   E   E   E   E   E   E   
--20--18--20--18--17--18--17--15------15------15--|
----------------------------------18------18------|
--------------------------------------------------|
--------------------------------------------------|
--------------------------------------------------|
--------------------------------------------------|


   |---3---|   |---3---|   |---3---|   |---3---|   
   E   E   E   E   E   E   E   E   E   E   E   E   
--20--18--20--18--17--18--17--15------15----------|
----------------------------------18------18--15--|
--------------------------------------------------|
--------------------------------------------------|
--------------------------------------------------|
--------------------------------------------------|


   |---3---|   |---3---|   |---3---|   |---3---|   
   E   E   E   E   E   E   E   E   E   E   E   E   
--20--18--20--18--17--18--17--15------15------15--|
----------------------------------18------18------|
--------------------------------------------------|
--------------------------------------------------|
--------------------------------------------------|
--------------------------------------------------|


   |---3---|   |---3---|   |---3---|   |---3---|   
   E   E   E   E   E   E   E   E   E   E   E   E   
--20--18--20--18--16--18--16--15------15----------|
----------------------------------18------18--16--|
--------------------------------------------------|
--------------------------------------------------|
--------------------------------------------------|
--------------------------------------------------|


   |---3---|   |---3---|   |---3---|   |---3---|   
   E   E   E   E   E   E   E   E   E   E   E   E   
--18--16--18--16--15--16--15------15--------------|
------------------------------18------18--16--18--|
--------------------------------------------------|
--------------------------------------------------|
--------------------------------------------------|
--------------------------------------------------|


   |---3---|   |---3---|   |---3---|   |---3---|   
   E   E   E   E   E   E   E   E   E   E   E   E   
--18--16--18--16--15--16--15------15--------------|
------------------------------18------18--16--13--|
--------------------------------------------------|
--------------------------------------------------|
--------------------------------------------------|
--------------------------------------------------|


   |---3---|   |---3---|   |---3---|   |---3---|   
   E   E   E   E   E   E   E   E   E   E   E   E   
--16--15--13--15--13------13----------------------|
----------------------16------16--15--16--15--13--|
--------------------------------------------------|
--------------------------------------------------|
--------------------------------------------------|
--------------------------------------------------|


   |---3---|   |---3---|   |---3---|   |---3---|   
   E   E   E   E   E   E   E   E   E   E   E   E   
--16--15--13--15--15------13----------------------|
----------------------16------16--15--16--15--13--|
--------------------------------------------------|
--------------------------------------------------|
--------------------------------------------------|
--------------------------------------------------|


   |---3---|   |---3---|   |---3---|   |---3---|   
   E   E   E   E   E   E   E   E   E   E   E   E   
--18--16--18--16--15--16--15------15--------------|
------------------------------18------18--16--18--|
--------------------------------------------------|
--------------------------------------------------|
--------------------------------------------------|
--------------------------------------------------|


   |---3---|   |---3---|   |---3---|   |---3---|                   
   E   E   E   E   E   E   E   E   E   E   E   E     H.            
--18--16--18--16--15--16--15------15--------------|---------------|
------------------------------18------18--16--13--|---------------|
--------------------------------------------------|---------------|
--------------------------------------------------|---------------|
--------------------------------------------------|---------------|
--------------------------------------------------|---------------|


  H.              H.              H.              H.              H.            
---------------|---------------|---------------|---------------|---------------|
---------------|---------------|---------------|---------------|---------------|
---------------|---------------|---------------|---------------|---------------|
---------------|---------------|---------------|---------------|---------------|
---------------|---------------|---------------|---------------|---------------|
---------------|---------------|---------------|---------------|---------------|


  H.              H.              W                 
---------------|---------------|-------------------|
---------------|---------------|-------------------|
---------------|---------------|-------------------|
---------------|---------------|-------------------|
---------------|---------------|-------------------|
---------------|---------------|-------------------|


   |---3---|   |---3---|   |---3---|   |---3---|   
   E   E   E   E   E   E   E   E   E   E   E   E   
--17--15--17--15--14--15--14----------------------|
------------------------------17--15--17--15--17--|
--------------------------------------------------|
--------------------------------------------------|
--------------------------------------------------|
--------------------------------------------------|


   |---3---|   |---3---|   |---3---|   |---3---|   
   E   E   E   E   E   E   E   E   E   E   E   E   
--17--15--17--15--14--15--14----------------------|
------------------------------17--15--17--15------|
----------------------------------------------16--|
--------------------------------------------------|
--------------------------------------------------|
--------------------------------------------------|


   |---3---|   |---3---|   |---3---|   |---3---|   
   E   E   E   E   E   E   E   E   E   E   E   E   
--17--15--17--15--14--15--14----------------------|
------------------------------17--15--17--15--17--|
--------------------------------------------------|
--------------------------------------------------|
--------------------------------------------------|
--------------------------------------------------|


   |---3---|   |---3---|   |---3---|   |---3---|   
   E   E   E   E   E   E   E   E   E   E   E   E   
--17--15--17--15--13--15--13----------------------|
------------------------------17--15--17--15--13--|
--------------------------------------------------|
--------------------------------------------------|
--------------------------------------------------|
--------------------------------------------------|


   |---3---|   |---3---|   |---3---|   |---3---|   
   E   E   E   E   E   E   E   E   E   E   E   E   
--17--15--17--15--14--15--14----------------------|
------------------------------17--15--17--15--17--|
--------------------------------------------------|
--------------------------------------------------|
--------------------------------------------------|
--------------------------------------------------|


   |---3---|   |---3---|   |---3---|   |---3---|   
   E   E   E   E   E   E   E   E   E   E   E   E   
--17--15--17--15--14--15--14----------------------|
------------------------------17--15--17--15------|
----------------------------------------------16--|
--------------------------------------------------|
--------------------------------------------------|
--------------------------------------------------|


   |---3---|   |---3---|   |---3---|   |---3---|   
   E   E   E   E   E   E   E   E   E   E   E   E   
--17--15--17--15--14--15--14----------------------|
------------------------------17--15--17--15--17--|
--------------------------------------------------|
--------------------------------------------------|
--------------------------------------------------|
--------------------------------------------------|


   |---3---|   |---3---|   |---3---|   |---3---|   
   E   E   E   E   E   E   E   E   E   E   E   E   
--17--15--17--15--13--15--13----------------------|
------------------------------17--15--17--15--13--|
--------------------------------------------------|
--------------------------------------------------|
--------------------------------------------------|
--------------------------------------------------|


   |---3---|   |---3---|   |---3---|   |---3---|   
   E   E   E   E   E   E   E   E   E   E   E   E   
--15--13--15--13--12--13--12------12--------------|
------------------------------15------15--13--15--|
--------------------------------------------------|
--------------------------------------------------|
--------------------------------------------------|
--------------------------------------------------|


   |---3---|   |---3---|   |---3---|   |---3---|   
   E   E   E   E   E   E   E   E   E   E   E   E   
--15--13--15--13--12--13--12------12--------------|
------------------------------15------15--13--10--|
--------------------------------------------------|
--------------------------------------------------|
--------------------------------------------------|
--------------------------------------------------|


   |---3---|   |---3---|   |---3---|   |---3---|   
   E   E   E   E   E   E   E   E   E   E   E   E   
--13--12--10--12--10------10----------------------|
----------------------13------13--12--13--12--10--|
--------------------------------------------------|
--------------------------------------------------|
--------------------------------------------------|
--------------------------------------------------|


   |---3---|   |---3---|   |---3---|   |---3---|   
   E   E   E   E   E   E   E   E   E   E   E   E   
--13--12--10--12--12------10----------------------|
----------------------13------13--12--13--12--10--|
--------------------------------------------------|
--------------------------------------------------|
--------------------------------------------------|
--------------------------------------------------|


   |---3---|   |---3---|   |---3---|   |---3---|   
   E   E   E   E   E   E   E   E   E   E   E   E   
--15--13--15--13--12--13--12------12--------------|
------------------------------15------15--13--15--|
--------------------------------------------------|
--------------------------------------------------|
--------------------------------------------------|
--------------------------------------------------|


   |---3---|   |---3---|   |---3---|   |---3---|                   
   E   E   E   E   E   E   E   E   E   E   E   E     H.            
--15--13--15--13--12--13--12------12--------------|---------------|
------------------------------15------15--13--10--|---------------|
--------------------------------------------------|---------------|
--------------------------------------------------|---------------|
--------------------------------------------------|---------------|
--------------------------------------------------|---------------|


  H.              W                   W                   W                 
---------------|-------------------|-------------------|-------------------|
---------------|-------------------|-------------------|-------------------|
---------------|-------------------|-------------------|-------------------|
---------------|-------------------|-------------------|-------------------|
---------------|-------------------|-------------------|-------------------|
---------------|-------------------|-------------------|-------------------|


  W                   
--------------------||
--------------------||
-------------------*||
-------------------*||
--------------------||
--------------------||


Horn

     W                   Q    Q    H           H        H         
E||-------------------|-------5----3--------|--2-----------------|
B||-------------------|---------------------|-----------6--------|
G||-------------------|---------------------|--------------------|
D||-------------------|---------------------|--------------------|
A||-------------------|---------------------|--------------------|
E||-------------------|---------------------|--------------------|


  Q    Q    H           H        H           Q    Q    H         
---------------------|--------------------|-------5----3--------|
-------5----4--------|--3--------2--------|---------------------|
---------------------|--------------------|---------------------|
---------------------|--------------------|---------------------|
---------------------|--------------------|---------------------|
---------------------|--------------------|---------------------|


  H        H           Q    Q    H           H        H         
--2-----------------|---------------------|--------------------|
-----------6--------|-------5----4--------|--3--------2--------|
--------------------|---------------------|--------------------|
--------------------|---------------------|--------------------|
--------------------|---------------------|--------------------|
--------------------|---------------------|--------------------|


    W                   W                   W                 
|--------------------|-------------------|-------------------|
|--------------------|-------------------|-------------------|
|*-------------------|-------------------|-------------------|
|*-------------------|-------------------|-------------------|
|--------------------|-------------------|-------------------|
|--------------------|-------------------|-------------------|


  W                   W                   W                   W                 
-------------------|-------------------|-------------------|-------------------|
-------------------|-------------------|-------------------|-------------------|
-------------------|-------------------|-------------------|-------------------|
-------------------|-------------------|-------------------|-------------------|
-------------------|-------------------|-------------------|-------------------|
-------------------|-------------------|-------------------|-------------------|


  W                   W                   W                   W                 
-------------------|-------------------|-------------------|-------------------|
-------------------|-------------------|-------------------|-------------------|
-------------------|-------------------|-------------------|-------------------|
-------------------|-------------------|-------------------|-------------------|
-------------------|-------------------|-------------------|-------------------|
-------------------|-------------------|-------------------|-------------------|


  W                   W                   W                   H.            
-------------------|-------------------|-------------------|---------------|
-------------------|-------------------|-------------------|---------------|
-------------------|-------------------|-------------------|---------------|
-------------------|-------------------|-------------------|---------------|
-------------------|-------------------|-------------------|---------------|
-------------------|-------------------|-------------------|---------------|


  |--3--|  |--3--|                           |--3--|  |--3--|         
  E  E  E  E  E  E  E  E     H.              E  E  E  E  E  E  E  E   
--3--4--5--6--5--4--3-----|---------------|--3--4--5--6--5--4--3-----|
--------------------------|---------------|--------------------------|
--------------------------|---------------|--------------------------|
--------------------------|---------------|--------------------------|
--------------------------|---------------|--------------------------|
--------------------------|---------------|--------------------------|


                  |--3--|  |--3--|                         
  H.              E  E  E  E  E  E  E  E     H.            
---------------|--3--4--5--6--5--4--3-----|---------------|
---------------|--------------------------|---------------|
---------------|--------------------------|---------------|
---------------|--------------------------|---------------|
---------------|--------------------------|---------------|
---------------|--------------------------|---------------|


  |--3--|  |--3--|            |---3---|  |--3--|  |--3--|  |--3--|   
  E  E  E  E  E  E  E  E      E   E   E  E  E  E  E  E  E  E  E  E   
--3--4--5--6--5--4--3-----|-----------------------------------------|
--------------------------|--11--10------9--8-----7--6-----5--4-----|
--------------------------|----------10--------8--------6--------4--|
--------------------------|-----------------------------------------|
--------------------------|-----------------------------------------|
--------------------------|-----------------------------------------|


  W                   W                   W                   W                 
-------------------|-------------------|-------------------|-------------------|
-------------------|-------------------|-------------------|-------------------|
-------------------|-------------------|-------------------|-------------------|
-------------------|-------------------|-------------------|-------------------|
-------------------|-------------------|-------------------|-------------------|
-------------------|-------------------|-------------------|-------------------|


  W                   W                   W                   W                 
-------------------|-------------------|-------------------|-------------------|
-------------------|-------------------|-------------------|-------------------|
-------------------|-------------------|-------------------|-------------------|
-------------------|-------------------|-------------------|-------------------|
-------------------|-------------------|-------------------|-------------------|
-------------------|-------------------|-------------------|-------------------|


  W                   W                   W                   W                 
-------------------|-------------------|-------------------|-------------------|
-------------------|-------------------|-------------------|-------------------|
-------------------|-------------------|-------------------|-------------------|
-------------------|-------------------|-------------------|-------------------|
-------------------|-------------------|-------------------|-------------------|
-------------------|-------------------|-------------------|-------------------|


  W                   W                   H.              H.            
-------------------|-------------------|---------------|---------------|
-------------------|-------------------|---------------|---------------|
-------------------|-------------------|---------------|---------------|
-------------------|-------------------|---------------|---------------|
-------------------|-------------------|---------------|---------------|
-------------------|-------------------|---------------|---------------|


   |---3---|   |---3---|   |---3---|   |---3---|   
   E   E   E   E   E   E   E   E   E   E   E   E   
--------------------------------------------------|
--15----------------------15----------------------|
------14--12------12--14------14--12------12--14--|
--------------12----------------------12----------|
--------------------------------------------------|
--------------------------------------------------|


   |---3---|   |---3---|   |---3---|   |---3---|   
   E   E   E   E   E   E   E   E   E   E   E   E   
--------------------------------------------------|
--15----------------------15----------------------|
------14--12------12--14------14--12------12--14--|
--------------12----------------------12----------|
--------------------------------------------------|
--------------------------------------------------|


   |---3---|   |---3---|   |---3---|   |---3---|   
   E   E   E   E   E   E   E   E   E   E   E   E   
--------------------------------------------------|
--15----------------------15----------------------|
------14--12------12--14------14--12------12--14--|
--------------12----------------------12----------|
--------------------------------------------------|
--------------------------------------------------|


   |---3---|   |---3---|   |---3---|   |---3---|     
   E   E   E   E   E   E   E   E   E   E   E   E     
---------------------------------------------------||
--15----------------------15-----------------------||
------14--12------12--14------14--12------12--14--*||
--------------12----------------------12----------*||
---------------------------------------------------||
---------------------------------------------------||


Rock Organ

     W                   W                   W                 
E||-------------------|-------------------|-------------------|
B||-------------------|-------------------|-------------------|
G||-------------------|-------------------|-------------------|
D||-------------------|-------------------|-------------------|
A||-------------------|-------------------|-------------------|
E||-------------------|-------------------|-------------------|


  W                   W                   W                   W                 
-------------------|-------------------|-------------------|-------------------|
-------------------|-------------------|-------------------|-------------------|
-------------------|-------------------|-------------------|-------------------|
-------------------|-------------------|-------------------|-------------------|
-------------------|-------------------|-------------------|-------------------|
-------------------|-------------------|-------------------|-------------------|


                                                        |---3--|          
  W                   W                     E  E  E  E  E   E  E   E  E   
-------------------|-------------------||---8-----8--------10-----10-----|
-------------------|-------------------||---8-----8--------10-----10-----|
-------------------|-------------------||*-------------------------------|
-------------------|-------------------||*-------------------------------|
-------------------|-------------------||--------------------------------|
-------------------|-------------------||--------------------------------|


              |---3--|                        |---3--|          
  E  E  E  E  E   E  E   E  E     E  E  E  E  E   E  E   E  E   
--8-----8--------10-----10-----|--8-----8--------10-----10-----|
--8-----8--------10-----10-----|--8-----8--------10-----10-----|
-------------------------------|-------------------------------|
-------------------------------|-------------------------------|
-------------------------------|-------------------------------|
-------------------------------|-------------------------------|


                |---3--|                        |---3--|          
   E  E   E  E  E   E  E   E  E     E  E  E  E  E   E  E   E  E   
--13-----13--------11-----11-----|--8-----8--------10-----10-----|
--13-----13--------11-----11-----|--8-----8--------10-----10-----|
---------------------------------|-------------------------------|
---------------------------------|-------------------------------|
---------------------------------|-------------------------------|
---------------------------------|-------------------------------|


              |---3--|                        |---3--|          
  E  E  E  E  E   E  E   E  E     E  E  E  E  E   E  E   E  E   
--8-----8--------10-----10-----|--8-----8--------10-----10-----|
--8-----8--------10-----10-----|--8-----8--------10-----10-----|
-------------------------------|-------------------------------|
-------------------------------|-------------------------------|
-------------------------------|-------------------------------|
-------------------------------|-------------------------------|


                |---3--|                        |--3--|         
   E  E   E  E  E   E  E   E  E     E  E  E  E  E  E  E  E  E   
--13-----13--------11-----11-----|--8-----8--------6--8--8-----|
--13-----13--------11-----11-----|--6-----6--------4--6--6-----|
---------------------------------|-----------------------------|
---------------------------------|-----------------------------|
---------------------------------|-----------------------------|
---------------------------------|-----------------------------|


              |--3--|                       |--3--|         
  E  E  E  E  E  E  E  E  E     E  E  E  E  E  E  E  E  E   
--8-----8--------6--8--8-----|--6-----6--------6--6--6-----|
--6-----6--------4--6--6-----|--4-----4--------3--4--4-----|
-----------------------------|-----------------------------|
-----------------------------|-----------------------------|
-----------------------------|-----------------------------|
-----------------------------|-----------------------------|


              |--3--|                       |--3--|         
  E  E  E  E  E  E  E  E  E     E  E  E  E  E  E  E  E  E   
--6-----6--------6--6--6-----|--8-----8--------6--8--8-----|
--4-----4--------3--4--4-----|--6-----6--------4--6--6-----|
-----------------------------|-----------------------------|
-----------------------------|-----------------------------|
-----------------------------|-----------------------------|
-----------------------------|-----------------------------|


              |--3--|                |--3--|                         
  E  E  E  E  E  E  E  E  E     Q    E  E  E  E  E     H.            
--8-----8--------6--8--8-----|-------3--4--5--6-----|---------------|
--6-----6--------4--6--6-----|----------------------|---------------|
-----------------------------|----------------------|---------------|
-----------------------------|----------------------|---------------|
-----------------------------|----------------------|---------------|
-----------------------------|----------------------|---------------|


       |--3--|                                |--3--|                         
  Q    E  E  E  E  E     H.              Q    E  E  E  E  E     H.            
-------3--4--5--6-----|---------------|-------3--4--5--6-----|---------------|
----------------------|---------------|----------------------|---------------|
----------------------|---------------|----------------------|---------------|
----------------------|---------------|----------------------|---------------|
----------------------|---------------|----------------------|---------------|
----------------------|---------------|----------------------|---------------|


       |--3--|                                             
  Q    E  E  E  E  E     H.              W                 
-------3--4--5--6-----|---------------|-------------------|
----------------------|---------------|-------------------|
----------------------|---------------|-------------------|
----------------------|---------------|-------------------|
----------------------|---------------|-------------------|
----------------------|---------------|-------------------|


              |--3--|                       |--3--|         
  E  E  E  E  E  E  E  E  E     E  E  E  E  E  E  E  E  E   
--5-----5--------7-----7-----|--5-----5--------7-----7-----|
--5-----5--------7-----7-----|--5-----5--------7-----7-----|
-----------------------------|-----------------------------|
-----------------------------|-----------------------------|
-----------------------------|-----------------------------|
-----------------------------|-----------------------------|


              |--3--|                         |--3--|         
  E  E  E  E  E  E  E  E  E      E  E   E  E  E  E  E  E  E   
--5-----5--------7-----7-----|--10-----10--------8-----8-----|
--5-----5--------7-----7-----|--10-----10--------8-----8-----|
-----------------------------|-------------------------------|
-----------------------------|-------------------------------|
-----------------------------|-------------------------------|
-----------------------------|-------------------------------|


              |--3--|                       |--3--|         
  E  E  E  E  E  E  E  E  E     E  E  E  E  E  E  E  E  E   
--5-----5--------7-----7-----|--5-----5--------7-----7-----|
--5-----5--------7-----7-----|--5-----5--------7-----7-----|
-----------------------------|-----------------------------|
-----------------------------|-----------------------------|
-----------------------------|-----------------------------|
-----------------------------|-----------------------------|


              |--3--|                         |--3--|         
  E  E  E  E  E  E  E  E  E      E  E   E  E  E  E  E  E  E   
--5-----5--------7-----7-----|--10-----10--------8-----8-----|
--5-----5--------7-----7-----|--10-----10--------8-----8-----|
-----------------------------|-------------------------------|
-----------------------------|-------------------------------|
-----------------------------|-------------------------------|
-----------------------------|-------------------------------|


                |---3--|                          |---3--|          
   E  E   E  E  E  E   E   E  E      E  E   E  E  E  E   E   E  E   
--10-----10--------8--10--10-----|--10-----10--------8--10--10-----|
--10-----10--------8--10--10-----|--10-----10--------8--10--10-----|
---------------------------------|---------------------------------|
---------------------------------|---------------------------------|
---------------------------------|---------------------------------|
---------------------------------|---------------------------------|


              |--3--|                       |--3--|         
  E  E  E  E  E  E  E  E  E     E  E  E  E  E  E  E  E  E   
-----------------------------|-----------------------------|
--8-----8--------8--8--8-----|--8-----8--------8--8--8-----|
--5-----5--------4--5--5-----|--5-----5--------4--5--5-----|
-----------------------------|-----------------------------|
-----------------------------|-----------------------------|
-----------------------------|-----------------------------|


                |---3--|                          |---3--|          
   E  E   E  E  E  E   E   E  E      E  E   E  E  E  E   E   E  E   
---------------------------------|---------------------------------|
--10-----10--------8--10--10-----|--10-----10--------8--10--10-----|
---7------7--------5---7---7-----|---7------7--------5---7---7-----|
---------------------------------|---------------------------------|
---------------------------------|---------------------------------|
---------------------------------|---------------------------------|


  H.              H.              W                   W                 
---------------|---------------|-------------------|-------------------|
---------------|---------------|-------------------|-------------------|
---------------|---------------|-------------------|-------------------|
---------------|---------------|-------------------|-------------------|
---------------|---------------|-------------------|-------------------|
---------------|---------------|-------------------|-------------------|


  W                   W                   
-------------------|--------------------||
-------------------|--------------------||
-------------------|-------------------*||
-------------------|-------------------*||
-------------------|--------------------||
-------------------|--------------------||


Timpani

                  |--3--|          |--3--|       |--3--|   
     H.           E  E  E     Q    E  E  E  Q    E  E  E   
E||------------------------|------------------------------|
B||------------------------|------------------------------|
G||------------------------|------------------------------|
D||------------------------|------------------------------|
A||------------------------|----------------3----3--3--3--|
E||---------------5--5--5--|--5----5--5--5----------------|


       |--3--|       |--3--|          |--3--|       |--3--|   
  Q    E  E  E  Q    E  E  E     Q    E  E  E  Q    E  E  E   
------------------------------|------------------------------|
------------------------------|------------------------------|
------------------------------|------------------------------|
------------------------------|------------------------------|
--6----6--6--6--5----5--5--5--|--4----4--4--4--3----3--3--3--|
------------------------------|------------------------------|


       |--3--|       |--3--|          |--3--|       |--3--|   
  Q    E  E  E  Q    E  E  E     Q    E  E  E  Q    E  E  E   
------------------------------|------------------------------|
------------------------------|------------------------------|
------------------------------|------------------------------|
------------------------------|------------------------------|
------------------------------|----------------3----3--3--3--|
--7----7--7--7--6----6--6--6--|--5----5--5--5----------------|


       |--3--|       |--3--|          |--3--|       |--3--|   
  Q    E  E  E  Q    E  E  E     Q    E  E  E  Q    E  E  E   
------------------------------|------------------------------|
------------------------------|------------------------------|
------------------------------|------------------------------|
------------------------------|------------------------------|
--6----6--6--6--5----5--5--5--|--4----4--4--4--3----3--3--3--|
------------------------------|------------------------------|


       |--3--|       |--3--|                 |--3--|        
  Q    E  E  E  Q    E  E  E       Q    Q    E  E  E  Q     
------------------------------||---------------------------|
------------------------------||---------------------------|
------------------------------||*--------------------------|
------------------------------||*--------------------------|
------------------------------||---------------------------|
--7----7--7--7--6----6--6--6--||---3----3-------3-----3----|


            |--3--|                    |--3--|        
  Q    Q    E  E  E  Q       Q    Q    E  E  E  Q     
--------------------------|--------------------------|
--------------------------|--------------------------|
--------------------------|--------------------------|
--------------------------|--------------------------|
--------------------------|--------------------------|
--3----3-------3-----3----|--3----3-------3-----3----|


            |--3--|                    |--3--|        
  Q    Q    E  E  E  Q       Q    Q    E  E  E  Q     
--------------------------|--------------------------|
--------------------------|--------------------------|
--------------------------|--------------------------|
--------------------------|--------------------------|
--------------------------|--------------------------|
--4----4-------4-----4----|--3----3-------3-----3----|


            |--3--|                    |--3--|        
  Q    Q    E  E  E  Q       Q    Q    E  E  E  Q     
--------------------------|--------------------------|
--------------------------|--------------------------|
--------------------------|--------------------------|
--------------------------|--------------------------|
--------------------------|--------------------------|
--3----3-------3-----3----|--3----3-------3-----3----|


            |--3--|                    |--3--|        
  Q    Q    E  E  E  Q       Q    Q    E  E  E  Q     
--------------------------|--------------------------|
--------------------------|--------------------------|
--------------------------|--------------------------|
--------------------------|--------------------------|
--------------------------|--4----4-------4-----4----|
--4----4-------4-----4----|--------------------------|


            |--3--|                    |--3--|        
  Q    Q    E  E  E  Q       Q    Q    E  E  E  Q     
--------------------------|--------------------------|
--------------------------|--------------------------|
--------------------------|--------------------------|
--------------------------|--------------------------|
--4----4-------4-----4----|--3----3-------3-----3----|
--------------------------|--------------------------|


            |--3--|                    |--3--|        
  Q    Q    E  E  E  Q       Q    Q    E  E  E  Q     
--------------------------|--------------------------|
--------------------------|--------------------------|
--------------------------|--------------------------|
--------------------------|--------------------------|
--3----3-------3-----3----|--4----4-------4-----4----|
--------------------------|--------------------------|


            |--3--|                                            
  Q    Q    E  E  E  Q       Q    Q    Q       Q    Q    Q     
--------------------------|-----------------|-----------------|
--------------------------|-----------------|-----------------|
--------------------------|-----------------|-----------------|
--------------------------|-----------------|-----------------|
--4----4-------4-----4----|-----------------|-----------------|
--------------------------|--3----3---------|--3----3----6----|


  Q    Q    Q       Q    Q    Q       Q    Q    Q       Q    Q    Q     
-----------------|-----------------|-----------------|-----------------|
-----------------|-----------------|-----------------|-----------------|
-----------------|-----------------|-----------------|-----------------|
-----------------|-----------------|-----------------|-----------------|
-----------------|-----------------|-----------------|-----------------|
--3----3---------|--3----3----6----|--3----3---------|--3----3----6----|


  Q    Q    Q       Q    Q    Q     
-----------------|-----------------|
-----------------|-----------------|
-----------------|-----------------|
-----------------|-----------------|
-----------------|-----------------|
--3----3---------|--3----3----6----|


  TP TP TP TP TP TP TP TP TP TP TP TP TP TP TP TP                             
                                                               |--3--|        
  S  S  S  S  S  S  S  S  S  S  S  S  S  S  S  S     Q    Q    E  E  E  Q     
--------------------------------------------------|--------------------------|
--------------------------------------------------|--------------------------|
--------------------------------------------------|--------------------------|
--------------------------------------------------|--2----2-------2-----2----|
--2--2--2--2--2--2--2--2--2--2--2--2--2--2--2--2--|--------------------------|
--------------------------------------------------|--------------------------|


            |--3--|                    |--3--|        
  Q    Q    E  E  E  Q       Q    Q    E  E  E  Q     
--------------------------|--------------------------|
--------------------------|--------------------------|
--------------------------|--------------------------|
--2----2-------2-----2----|--2----2-------2-----2----|
--------------------------|--------------------------|
--------------------------|--------------------------|


            |--3--|                    |--3--|        
  Q    Q    E  E  E  Q       Q    Q    E  E  E  Q     
--------------------------|--------------------------|
--------------------------|--------------------------|
--------------------------|--------------------------|
--3----3-------3-----3----|--2----2-------2-----2----|
--------------------------|--------------------------|
--------------------------|--------------------------|


            |--3--|                    |--3--|        
  Q    Q    E  E  E  Q       Q    Q    E  E  E  Q     
--------------------------|--------------------------|
--------------------------|--------------------------|
--------------------------|--------------------------|
--2----2-------2-----2----|--2----2-------2-----2----|
--------------------------|--------------------------|
--------------------------|--------------------------|


            |--3--|                    |--3--|        
  Q    Q    E  E  E  Q       Q    Q    E  E  E  Q     
--------------------------|--------------------------|
--------------------------|--------------------------|
--------------------------|--------------------------|
--3----3-------3-----3----|--------------------------|
--------------------------|--2----2-------2-----2----|
--------------------------|--------------------------|


            |--3--|                    |--3--|        
  Q    Q    E  E  E  Q       Q    Q    E  E  E  Q     
--------------------------|--------------------------|
--------------------------|--------------------------|
--------------------------|--------------------------|
--------------------------|--------------------------|
--2----2-------2-----2----|--1----1-------1-----1----|
--------------------------|--------------------------|


            |--3--|                    |--3--|        
  Q    Q    E  E  E  Q       Q    Q    E  E  E  Q     
--------------------------|--------------------------|
--------------------------|--------------------------|
--------------------------|--------------------------|
--------------------------|--------------------------|
--1----1-------1-----1----|--2----2-------2-----2----|
--------------------------|--------------------------|


            |--3--|                    |--3--|               |--3--|   
  Q    Q    E  E  E  Q       Q    Q    E  E  E     Q    Q    E  E  E   
--------------------------|---------------------|---------------------|
--------------------------|---------------------|---------------------|
--------------------------|---------------------|---------------------|
--------------------------|---------------------|---------------------|
--2----2-------2-----2----|---------------------|--6----6-------6-----|
--------------------------|--5----5-------5-----|---------------------|


            |--3--|                    |--3--|        
  Q    Q    E  E  E  Q       Q    Q    E  E  E  Q     
--------------------------|--------------------------|
--------------------------|--------------------------|
--------------------------|--------------------------|
--------------------------|--------------------------|
--5----5-------5-----5----|--5----5-------5-----5----|
--------------------------|--------------------------|


            |--3--|                    |--3--|          
  Q    Q    E  E  E  Q       Q    Q    E  E  E  Q       
--------------------------|---------------------------||
--------------------------|---------------------------||
--------------------------|--------------------------*||
--------------------------|--------------------------*||
--5----5-------5-----5----|--5----5-------5-----5-----||
--------------------------|---------------------------||




Duration Legend
---------------
W - whole
H - half
Q - quarter
E - 8th
S - 16th
T - 32nd
X - 64th
. - note dotted
|-n-|  - n-tuplets


Tablature Legend
----------------
L - tied note
x - dead note
g - grace note
(n) - ghost note
> - accentuded note
NH - natural harmonic
AH - artificial harmonic
TH - tapped harmonic
SH - semi harmonic
PH - pitch harmonic
h - hammer on
p - pull off
b - bend
br - bendRelease
pb - preBend
pbr - preBendRelease
brb - bendReleaseBend
\n/ - tremolo bar dip
\n - tremolo bar dive
-/n - tremolo bar Release up
/n\ - tremolo bar inverted dip
/n - tremolo bar return
-\n - tremolo bar Release down
S - shift slide
s - legato slide
/ -  slide into from below or out of upwards
\ -  slide into from above or out of downwards
~ - vibrato
W - wide vibrato
tr - trill
TP - tremolo picking
T - tapping
S - slap
P - pop
< - fade in
^ - brush up
v - brush down
Login or Register to remove this ad.