Battle Theme (Chrono Trigger) Bass Tab

Submitted: Sep 16, 2012 by PhonixDown26 (Last updated: Sep 18, 2012)

0
Download | Listen
Game: Chrono Trigger
Composer(s): Nobuo Uematsu, Yasunori Mitsuda, Noriko Matsueda
Style: Transcription
Series: Chrono

AutoScroll: Slow | Medium | Fast
Chrono Trigger
Battle Theme

G|-------------------------------5-7------|
D|--0--3-0---0-3-0--0--3-0--0--7----------|
A|----------------------------------------|
E|----------------------------------------|

G|-----------------------------7--5--------|
D|--0--3-0---0-3-0--0--3-0-----------7-5-3-|
A|-----------------------------------------|
E|-----------------------------------------|

This was transcribed from the official sheet music book, so I'm sure it's accurate,
unless I made a stupid mistake.  If there are any other tracks you want to me tab for bass,
let me know.
Login or Register to remove this ad.

2 comments on Battle Theme

I think you did, it's

I think you did, it's like:

G|-------------------------------5-7------|
D|--0--3-0---0-3-0--0--3-0--0--7----------|
A|----------------------------------------|
E|----------------------------------------|

G|-----------------------------7--5--------|
D|--0--3-0---0-3-0--0--3-0-----------7-5-3-|
A|-----------------------------------------|
E|-----------------------------------------|

Yeah you're right, my bad.

Yeah you're right, my bad.