Ads

Ayla's Theme (Chrono Trigger) Guitar Tab

Submitted: Sep 07, 2013 by Colin_spade

5
Average: 5 (1 vote)
Download | Listen
Game: Chrono Trigger
Composer(s): Nobuo Uematsu, Yasunori Mitsuda, Noriko Matsueda
Style: Arrangement, Fingerstyle
Series: Chrono

AutoScroll: Slow | Medium | Fast
Ayla's Theme                                   


                                                                Yasunori Mitsuda
Track 1



      Q    E  E  E  E  Q       Q    E  E  E  E  Q       Q    E  E  E  E  Q     
E||---0---------------------|--2---------------------|--3---------------------|
B||-------------------------|------------------------|--1---------------------|
G||*--0---------------------|--2---------------------|--0----L--0--0--0-------|
D||*--2----L--2--2--2-------|--4----L--4--4--4-------|--2----L--2--2--2-------|
A||---3----L--3--3--3-------|--5----L--5--5--5-------|------------------------|
E||-------------------------|------------------------|------------------------|


  Q    E  E  E  E  E  E        Q    E  E  E  E  Q       E  Q    E  E  E  Q     
--5----------0------------||--------------------3----|--L--2-------0--0-------|
--3-----------------------||-----------1-------------|-------------------3----|
--2----L-----------------*||*--2---------------------|------------------------|
--4----L--4--4--4--4--4--*||*--2-------2--2--2-------|--4-------4--4--4-------|
--------------------------||---3----L--3--3--3-------|--5-------5--5--5-------|
--------------------------||-------------------------|------------------------|


  Q    E  E  E  E  Q       E  E  E  E  E  E  E  E     
-------------------0----|---------------------------||
--1----3----------------|---------------------------||
--0-------0--0--0-------|-----2--0--2-----0--------*||
--2-------2--2--2-------|--------------4-----4--0--*||
------------------------|---------------------------||
------------------------|--2--------2-----2-----2---||


  E  E  E  E   E  E   E  E    
-----5--3--2h--3--2p--0-----||
-------------------------3--||
----------------------------||
----------------------------||
----------------------------||
--2--------2------2------2--||




Duration Legend
---------------
W - whole
H - half
Q - quarter
E - 8th
S - 16th
T - 32nd
X - 64th
. - note dotted
|-n-|  - n-tuplets


Tablature Legend
----------------
L - tied note
x - dead note
g - grace note
(n) - ghost note
> - accentuded note
NH - natural harmonic
AH - artificial harmonic
TH - tapped harmonic
SH - semi harmonic
PH - pitch harmonic
h - hammer on
p - pull off
b - bend
br - bendRelease
pb - preBend
pbr - preBendRelease
brb - bendReleaseBend
\n/ - tremolo bar dip
\n - tremolo bar dive
-/n - tremolo bar Release up
/n\ - tremolo bar inverted dip
/n - tremolo bar return
-\n - tremolo bar Release down
S - shift slide
s - legato slide
/ -  slide into from below or out of upwards
\ -  slide into from above or out of downwards
~ - vibrato
W - wide vibrato
tr - trill
TP - tremolo picking
T - tapping
S - slap
P - pop
< - fade in
^ - brush up
v - brush down
Login or Register to remove this ad.