Reminiscence (Chrono Cross) Guitar Tab

Submitted: May 26, 2019 by Maxinger (Last updated: Jun 08, 2019)

5
Average: 5 (1 vote)
Download | Listen
Game: Chrono Cross
Composer(s): Yasunori Mitsuda
Style: Arrangement, Fingerstyle
Series: Chrono

AutoScroll: Slow | Medium | Fast
Yasunori Mitsuda - Reminiscence
                                4     3  2  4               
                    ^                                       
     E  E     E  E  H        E  E     E  E  H        E  E   
E||--------|--------0--------------|-----------------------|
B||-----0--|--2-----0-----------5--|--4-----0-----------0--|
G||--------|--------2--------------|-----------------------|
D||--------|-----2-----------------|-----2--4--------------|
A||--------|--0--------------------|--0--------------------|
E||--------|-----------------------|-----------------------|


                                           1  2  1 2    1  2  4  42            
        ^                                                                      
  E  E  H        S S E     E  E  E  Q.     S  S  S S    E  E  E  Q.     E  E   
--------0---------------|----------------------------|------------------------|
--2-----0--------4-5-7--|--5---------------4h-5p-4---|--2---------------0-----|
--------2---------------|--4-----------------------4-|--------4--6---------2--|
-----2------------------|----------------------------|-----2-----4------------|
--0---------------------|--4-----6--7----------------|--0---------------------|
------------------------|-----4----------------------|------------------------|


  ^        ^                 ^                          ^                  
  E  E  E  Q    E  S S E     E  E  E  Q    E  S S E     H.           Q     
-----------------------4--|--2--------0-------0-2-4--|--2------------L----|
-----5--4--5-------5-7----|--2-----3-------3---------|--4------------L----|
--4--------4--------------|--2--2--------------------|--4-----------------|
--4-----6--6----6---------|--0-----------------------|---------------4----|
-----------4--------------|--------------------------|--2-----------------|
--4-----------------------|--------------------------|--------------------|


  Q    Q    Q    Q       E  E  E  E  E  E  E  E     E  E  E  Q    E  E  E   
------------0----2----|--4--------7--5--------2--|--4----------------0--2--|
-------4----2----4----|--------------------------|-----------0-------------|
-------4--------------|--------------------2-----|--------1--2----1--------|
-----------------4----|--------2--------1--------|-------------------------|
--2-------------------|-----2--------0-----------|-----2-------------------|
----------------------|--0-----------------------|--0----------------------|



                             34 1  3  4    1  321     
  E  E  E  E  E  E  E  E     E  E  E  Q    E  E   E   
--4--------7--5--------0--|--4----------------2---4--|
--------------------------|--5----------------2------|
-----------------4--5-----|--------------------------|
--------2-----------------|--------4--6----2--1------|
-----2--------------------|-----2--------------------|
--0-----------0-----------|--0-----------------------|


        4     13 2  4                                                           
  E  E  E  E  E  E  E  E     E  E  E  E  Q    E  E     E  E  E  E  E  E  E  E   
--0--------0--2-----------|----------------------2--|--4--------7--5--------2--|
--2-----4--------2--4--5--|--5--------2--4----5-----|--------------------------|
--1--1--------------------|--4-----4-----4----------|--------------------2-----|
--------------4-----------|--4--4--------4----------|--------2--------1--------|
--4-----------------------|--2----------------------|-----2--------------------|
--------------------------|-------------------------|--0-----------0-----------|


  E  E  E  Q    E  E  E     E  E  E  E  E  E  S  S E   
--4----------------0--2--|--4--------7--5-----5S-7-9--|
-----------0-------------|----------------------------|
--------1--2----1--------|--------1-----6-------------|
-------------------------|-----------------7----------|
-----2-------------------|-----2--------0-------------|
--0----------------------|--0-------------------------|


           3  2    3  2       214          3  1  44 3     12       4   
                              ^                           ^            
  E  E  E  E  Q    E  S  S    E   E  E  E  E  E  E  E     E  E  E  E   
--2------------------------|--0---------0--------4--2--|--0--------2--|
--0-----0--5--4----5--4S-2-|--2------4-----------4-----|--0-----0-----|
---------------------------|--1---1-----------1--------|--1--1--------|
-----4---------------------|---------------------------|--------------|
--2------------------------|--4------------3-----------|--2-----------|
---------------------------|---------------------------|--------------|


  321          1  4     12                                               
  ^                     ^                           ^                    
  H.           E  E     E  E  E  Q    E  S S S S    Q    E  Q.     Q     
--0------------------|--0--------0-------0-2-4-0-|--2-------2------0----|
--2------------2--4--|--0-----0------------------|--4----2--------------|
--1------------------|--1--1----------1----------|--4-------------------|
---------------------|---------------------------|----------------------|
--1------------------|--2------------------------|--2-------------------|
---------------------|---------------------------|----------------------|


                 4  1  4                         
  ^                          ^                   
  E  E  E  E  E  E  E  E     W                   
--0-----------------------|--0-----------------||
--0-----------0-----------|--0-----------------||
--2--------2--------1--2--|--1----------------*||
--2-----2--------4--------|--2----------------*||
-----2--------------------|--2-----------------||
--0-----------------------|--0-----------------||




Duration Legend
---------------
W - whole
H - half
Q - quarter
E - 8th
S - 16th
T - 32nd
X - 64th
. - note dotted
|-n-|  - n-tuplets


Tablature Legend
----------------
L - tied note
x - dead note
g - grace note
(n) - ghost note
> - accentuded note
NH - natural harmonic
AH - artificial harmonic
TH - tapped harmonic
SH - semi harmonic
PH - pitch harmonic
h - hammer on
p - pull off
b - bend
br - bendRelease
pb - preBend
pbr - preBendRelease
brb - bendReleaseBend
\n/ - tremolo bar dip
\n - tremolo bar dive
-/n - tremolo bar Release up
/n\ - tremolo bar inverted dip
/n - tremolo bar return
-\n - tremolo bar Release down
S - shift slide
s - legato slide
/ -  slide into from below or out of upwards
\ -  slide into from above or out of downwards
~ - vibrato
W - wide vibrato
tr - trill
TP - tremolo picking
T - tapping
S - slap
P - pop
< - fade in
^ - brush up
v - brush down

Login or Register to remove this ad.

3 comments on Reminiscence

Good tablature but what do

Good tablature but what do you think about my arrangement and my performance.https://community.gametabs.net/t/reminiscence-chrono-cross/4568 https://www.youtube.com/watch?v=ROBx9L-gnuo

Hi Chimatte, i hope i can

Hi Chimatte,

i hope i can clear this up a bit, as this Submission could seem a little shady to you..
I recently came back after quite a long guitar Hiatus, and it was your splendid performance of reminiscence that made me try the piece. I durdled around quite a bit with the tune, and since i remember myself always being happy when different fingerings for tabs were released so i could try which one i like most, i thought id submit my one. The tab Submission process had changed a lot since my contributions from 2008, in my original post i credited your recording and tablature as well as Colin Spades Version as the starting Point for this, which they certainly were. Now this tab is published and yours isnt somehow, and my original comment didnt make it here.. im sorry for that, it wasn't my intention to take your credit. Lets just go on creating tabs for this wonderful community shall we :) Keep up the good work, i really enjoyed your recording.

cheers,

Max

Thanks Maxinger for your kind

Thanks Maxinger for your kind words and for having inspired you.