Ads

Reminiscence (Chrono Cross) Guitar Tab

Submitted: Oct 14, 2013 by Colin_spade

4.8
Average: 4.8 (5 votes)
Download | Listen
Game: Chrono Cross
Composer(s): Yasunori Mitsuda
Style: Arrangement, Fingerstyle
Series: Chrono

AutoScroll: Slow | Medium | Fast
Reminiscence                                   


                                                                Yasunori Mitsuda
Track 1 (Capo 1)



                    ^                                       
     E  E     E  E  H        E  E     E  E  H        E  E   
E||--------|--------0-----------0--|-----------------------|
B||-----0--|--2-----0--------------|--4-----0-----------0--|
G||--------|--------2--------------|-----------------------|
D||--------|-----2-----------------|-----2--4--------------|
A||--------|--0--------------------|--0--------------------|
E||--------|-----------------------|-----------------------|


        ^                                                                  
  E  E  H        S S E     E  E  E  Q.     E  E     E  E  E  Q.     E  E   
--------0----------0-2--|--0--------0------------|------------------------|
--2-----0--------4------|--0-----4---------4--0--|--2-----0--2------0-----|
--------2---------------|-----1------------------|---------------------2--|
-----2------------------|------------------------|-----2-----4------------|
--0---------------------|--4---------------------|--0---------------------|
------------------------|------------------------|------------------------|


  ^        ^                 ^                          ^                     
  E  E  E  Q    E  S S E     E  E  E  Q    E  S S E     E  E  E  H        E   
-----0-----0-------0---4--|--2--------0-------0-2-4--|--2--------2--------L--|
--0-----4--0---------7----|--2-----3-------3---------|--4-----2--2--------L--|
-------------------6------|--2--2--------------------|--4--------------------|
--4--2--6--6----6---------|--0-----------------------|-----4-----------------|
-----------4--------------|--------------------------|--2--------------------|
--4-----------------------|--------------------------|-----------------------|


  Q    Q    Q    Q       E  E  E  E  E  E  E  E     E  E  E  Q    E  E  E   
------------0----2----|--4--------7--5-----------|--4----------------0--2--|
-------4----2----4----|-----------------------7--|-------------------------|
-------4--------------|--------------------------|--------1--2----1--------|
-----------------4----|--------2-----------7-----|--------2--4----2--------|
--2-------------------|-----2-----------6--------|-----2-------------------|
----------------------|--0-----------0-----------|--0----------------------|


  E  E  E  E  E  E  E  E     E  E  E  Q    E  E  E     E  E  E  E  E  E  E  E   
--4--------7--5--------2--|--4----------------2--4--|--0--------0--2--------0--|
--------------------------|--5----------------2--0--|--------4--------2--4-----|
--------------------2-----|-----------1-------------|--6-----------------------|
--------2--------1--4-----|--------4-------4--1-----|--6--4--------4-----------|
-----2--------------------|-----2-------------------|--4-----------------------|
--0-----------0-----------|--0----------------------|--------------------------|


  E  E  E  E  Q    E  E     E  E  E  E  E  E  E  E     E  E  E  Q    E  E  E   
--0----------------0--2--|--4--------7--5-----------|--4----------------0--2--|
--0-----0--2--4----------|-----------------------7--|-------------------------|
--------------4----------|--------------------------|--------1--2----1--------|
--4--4--------4----------|--------2-----------7-----|--------2--4----2--------|
--2----------------------|-----2-----------6--------|-----2-------------------|
-------------------------|--0-----------0-----------|--0----------------------|


  E  E  E  E  E  E  S S E      E  E  E  E  Q    E  E   
--4--------7--5-----5-7-9s--|--2--------0-------0-----|
----------------------------|--------2-----4-------4--|
--------------6-----6-------|--4----------------------|
--------4--------7----------|-----4-------------------|
-----2--------4-------------|--2----------------------|
--0-------------------------|-------------------------|


  ^                          ^              ^                   
  E  E  E  E  E  E  E  E     E  E  E  E     H.           E  E   
-----------0--------4--2--|--0--------0--|--0------------------|
--5-----4-----------4--5--|--0-----0--7--|------------------4--|
--6--------------1--------|--1--1--------|--6------------6-----|
--6--6--------------------|--------------|--6------------------|
--4-----------3-----------|--2-----------|--7------------------|
--------------------------|--------------|--6------------------|


  ^                           ^                       ^                        
  E  E  E  Q    E  S S S S    E  E  E  Q.     Q       E  E  E  E  E  E  E  E   
--0--------0----0--0-2-4-0-|--2--------2------0----|--0-----------------------|
---------------------------|--4-----2--------------|--0-----------0-----------|
--6-----6------------------|--4--------------------|--2--------2--------1--2--|
--6--------6---------------|-----4-----------------|--------2--------4--------|
-----7---------------------|--2--------------------|-----2--------------------|
--4------------------------|-----------------------|--0-----------------------|


  ^                   
  W                   
--0-----------------||
--0-----------------||
--1----------------*||
--2----------------*||
--2-----------------||
--0-----------------||




Duration Legend
---------------
W - whole
H - half
Q - quarter
E - 8th
S - 16th
T - 32nd
X - 64th
. - note dotted
|-n-|  - n-tuplets


Tablature Legend
----------------
L - tied note
x - dead note
g - grace note
(n) - ghost note
> - accentuded note
NH - natural harmonic
AH - artificial harmonic
TH - tapped harmonic
SH - semi harmonic
PH - pitch harmonic
h - hammer on
p - pull off
b - bend
br - bendRelease
pb - preBend
pbr - preBendRelease
brb - bendReleaseBend
\n/ - tremolo bar dip
\n - tremolo bar dive
-/n - tremolo bar Release up
/n\ - tremolo bar inverted dip
/n - tremolo bar return
-\n - tremolo bar Release down
S - shift slide
s - legato slide
/ -  slide into from below or out of upwards
\ -  slide into from above or out of downwards
~ - vibrato
W - wide vibrato
tr - trill
TP - tremolo picking
T - tapping
S - slap
P - pop
< - fade in
^ - brush up
v - brush down
Login or Register to remove this ad.

2 comments on Reminiscence

Beautiful!

5

Beautiful!

This is very good! Also,

5

This is very good! Also, email meeee