Ads

Quitting The Body (Chrono Cross) Guitar Tab

Submitted: Dec 08, 2012 by scarecrowlol (Last updated: Dec 08, 2012)

5
Average: 5 (10 votes)
Download | Listen
Game: Chrono Cross
Composer(s): Yasunori Mitsuda
Style: Arrangement, Fingerstyle
Series: Chrono

AutoScroll: Slow | Medium | Fast
Title: Quitting The Body
SubTitle: Chrono Cross
Artist: Yasanori Mitsuda
Tabber: Mitch Jackson
Tempo = 70
T/S = 4/4

 <**--Capo 3--**>

           ^
     E  E  Q     E  E  E  E       E  E  E  E  E  S S Q         E  E  E  E  E  E  Q
E |--------0-------------------|----------------------------|--------0-----------3-------|
B |--------1-----3--------0----|--0--1--0-------------------|--------------3-------------|
G |--2-----2-----------5-------|-----------0--2----0-2------|--2-----------------0-------|
D |-----2-----------0----------|--------------2-------------|-----------3-----0----------|
A |--0-------------------------|--------2--------3----------|-----0----------------------|
D |--------------5-------------|--2-----------3-------------|--0-----------5-------------|


     ^           ^                      ^
     E  E  E  E  Q     Q          E  E  Q     E  E  E  E       E  E  E  E  E  S S Q
  |--0-----------0-------------|--------0-------------------|----------------------------|
  |--0-----1--3--0-------------|--------1-----3--------0----|--0--1--0-------------------|
  |--0--0--------1-------------|--2-----2-----------5-------|-----------0--2----0-2------|
  |----------------------------|-----2-----------0----------|--------------2-------------|
  |--3-----------------2-------|--0-------------------------|--------2--------3----------|
  |--------------2-------------|--------------5-------------|--2-----------3-------------|


                                  ^           ^                       ^
     E  E  E  E  E  E  Q          E  E  E  E  H                 E  E  E  E  E  E  E  E
  |----------------------------|----------------------------||--------0-----0-------------|
  |--------1-----0-------------|----------------------------||--------1--3----------------|
  |--2-----------------0-------|--2--------2--2-------------||o-2-----2-----------2--0----|
  |-----------0--------2-------|--2--0--2-----2-------------||o----2-----------0----------|
  |-----0-----------2----------|--0-----------4-------------||--0-------------------------|
  |--0-----------2-------------|----------------------------||--------------5-------------|


     ^             |-3-|
    E  E  Q     E  S S S E  E      E  E  Q     E  E  Q          E  E  E  E  E  S. X X E  E
 |--------0-----2--2-3-2--------|--0-------------------------|------------------------------|
 |--------1--------------5--3---|--------------------0-------|-----------0--1--3--0-1-0-----|
 |--2-----2---------------------|--------2-----0-----0-------|--------2------------------0--|
 |-----------------------2------|--------3-----------4-------|--------3--------0---------0--|
 |-----3-----------2------------|-----0-----------2--2-------|-----3-----3------------------|
 |--3-----------2---------------|--0-----------2-------------|--3-----------5---------------|


     E  E  E  E  E  E  E  E       E  E  E  E  E  E  E  E       E  E  E  E  E  E  E  E
  |----------------------------|--------0-----------0-------|----------------------------|
  |--------1-----3-----0-------|--------1-----3-----0-------|--3-------------------------|
  |--------2-----2-----0-------|--------2-----2-------------|--------4-----0-----4-------|
  |--2--2-----2-----2-----2----|-----2-----2-----2-----2----|-----0-----0-----0-----0----|
  |--0-------------------------|--0-------------------------|----------------------------|
  |----------------------------|----------------------------|--5-------------------------|


                       |-3-|
     E  E  E  E  E  E  E E E      E  E  E  E  E  E  E  E       H           E  E  E  E
  |----------------------------|----------------------------|----------------------------|
  |------------------------0---|--------1-----3-----0-------|--1--------------0--1--3----|
  |--0-----4-----0-----0-2-----|--2-----2-----2-----0-------|--2-----------2-------------|
  |-----0-----0-----0----------|-----2-----2-----2-----2----|--2-----------2-------------|
  |----------------------------|--0-------------------------|--0-----------0-------------|
  |--5-------------------------|----------------------------|----------------------------|


     S S S S S S S S S S S S S S S S     S S S S S S S S S S S S S S S S     S S S S S S S S S S S S S S S S
  |--0-----0-------0-------0-------0--|--0-----0---------------0----------|--------3---------------3-------3--|
  |------1-------1-------1-------3----|------1-------3-1-0---1---------1--|--0---1-------3-1-0---1-------1----|
  |----2-------2-------2-------2------|----2-------2-------2-------2-0----|----4-------4-------4-------4------|
  |--3-------3-------3-------3--------|--3-------3-------3-------3--------|--2-------2-------2-------2--------|
  |-----------------------------------|-----------------------------------|--0--------------------------------|
  |-----------------------------------|-----------------------------------|-----------------------------------|


     S S S S S S S S S S S S S S S S     S S S S S S S S S S S S S S S S     S S S S S S S S S S S S S S S S
  |--0-----3-------3-------3-------0--|--0-----0-------0-------0-----3-1--|--0-----0-------0-------0-------0--|
  |------1-------1-------1-------3----|------1-------1-------1------------|------1-------1---3---1-------1----|
  |----4-------4-------4-------4------|----2-------2-------2-------2------|----2-------2-------2-------2------|
  |--2-------2-------2-------2--------|--3-------3-------3-------3--------|--3-------3-------3-------3--------|
  |--0--------------------------------|-----------------------------------|-----------------------------------|
  |-----------------------------------|-----------------------------------|-----------------------------------|


     S S S S S S S S S S S S S S S S     S S S S S S S S S S S S S S S S     S S S S S S S S S S S S S S S S
  |--0-----3-------3-------3-------3--|--------3-3-----3-5-----3-------0--|--0-----0-------0-------0-------0--|
  |------1-------1-------1-------1----|------1-------1-------1---3---3----|------1-------1-------1-------3----|
  |----4-------4-------4-------4------|----4-------4-------4-------4------|----2-------2-------2-------2------|
  |--2-------2-------2-------2--------|--2-------2-------2-------2--------|--3-------3-------3-------3--------|
  |--0--------------------------------|--0--------------------------------|-----------------------------------|
  |-----------------------------------|-----------------------------------|-----------------------------------|


     S S S S S S S S S S S S S S S S     S S S S S S S S S S S S S S S S     S S S S S S S S S S S S S S S S
  |--0-----0---------------0----------|--------3---------------3----------|--------3-------3-------3-------0--|
  |------1-------3-1-0---1---------1--|--0---1-------3-1-0---1---------1--|------1-------1---0---1-------3----|
  |----2-------2-------2-------2-0----|----4-------4-------4-------4-0----|----4-------4-------4-------4------|
  |--3-------3-------3-------3--------|--2-------2-------2-------2--------|--2-------2-------2-------2--------|
  |-----------------------------------|--0--------------------------------|--0--------------------------------|
  |-----------------------------------|-----------------------------------|-----------------------------------|


     S S S S S S S S S S S S S S S S     S S S S S S S S S S S S S S S S     S S S S S S S S S S S S S S S S
  |--0-----0-------0-------0-----3-1--|--0-----0-------0-------0-------0--|--0-----0-------0-------0-------0--|
  |------1-------1-------1------------|------1-------1---3---1-------1----|------0-------0-------0-------0----|
  |----2-------2-------2-------2------|----2-------2-------2-------2------|----2-------2-------2-------2------|
  |--3-------3-------3-------3--------|--0-------0-------0-------0--------|--2-------2-------2-------2--------|
  |-----------------------------------|-----------------------------------|-----------------------------------|
  |-----------------------------------|--0--------------------------------|-----------------------------------|


     ^                                          ^                                  |-3-|
     W                                 E  E  E  E  E  E  E  E       E  E  Q     E  S S S E  E
  |--0-----------------------------||--------0-----0-------------|--------0-----2--2-3-2--------|
  |--0-----------------------------||--------1--3----------------|--------1--------------5--3---|
  |--1----------------------------o||--2-----2-----------2--0----|--2-----2---------------------|
  |--2----------------------------o||-----2-----------0----------|-----------------------2------|
  |--------------------------------||--0-------------------------|-----3-----------2------------|
  |--2-----------------------------||--------------5-------------|--3-----------2---------------|


     E  E  Q     E  E  Q          E  E  E  E  E  S. X X E  E     E  E  E  E  E  E  E  E
  |--0-------------------------|------------------------------|----------------------------|
  |--------------------0-------|-----------0--1--3--0-1-0-----|--------1-----3-----0-------|
  |--------2-----0-----0-------|--------2------------------0--|--------2-----2-----0-------|
  |--------3-----------4-------|--------3--------0---------0--|--2--2-----2-----2-----2----|
  |-----0-----------2--2-------|-----3-----3------------------|--0-------------------------|
  |--0-----------2-------------|--3-----------5---------------|----------------------------|


                                                                                 |-3-|
     E  E  E  E  E  E  E  E       E  E  E  E  E  E  E  E       E  E  E  E  E  E  E E E
  |--------0-----------0-------|----------------------------|----------------------------|
  |--------1-----3-----0-------|--3-------------------------|------------------------0---|
  |--------2-----2-------------|--------4-----0-----4-------|--0-----4-----0-----0-2-----|
  |-----2-----2-----2-----2----|-----0-----0-----0-----0----|-----0-----0-----0----------|
  |--0-------------------------|----------------------------|----------------------------|
  |----------------------------|--5-------------------------|--5-------------------------|


     Rall-->                      ^
     E  E  E  E  E  E  E   E      W
  |----------------------------|--0-------------------------||
  |--------1-----3-----0-------|--1-------------------------||
  |--2-----2-----2-----0-------|--2-------------------------||
  |-----2-----2-----2-----2----|--2-------------------------||
  |--0-------------------------|--0-------------------------||
  |----------------------------|----------------------------||

Login or Register to remove this ad.

6 comments on Quitting The Body

Sounds great, well done!

Sounds great, well done!

Thanks, i thought i might do

5

Thanks, i thought i might do a more tuning friendly version of this piece cause i love it soo much!

Beautiful stuff, keep it up

5

Beautiful stuff, keep it up

Oh this is great, can't wait

5

Oh this is great, can't wait to play the second part without breaks. ;)

Beautiful.

5

love it!

My recording of this

5

My recording of this song:
https://www.youtube.com/watch?v=XCl3TFKKU30&index=24&list=PL8TOuw2BIIzHd...