Ads

Prisoners of Fate (Chrono Cross) Guitar Tab

Submitted: May 12, 2022 by nozomi (Last updated: May 12, 2022)

3
Average: 3 (1 vote)
Download | No audio :(
Game: Chrono Cross
Composer(s): Yasunori Mitsuda
Style: Arrangement, Fingerstyle
Series: Chrono

AutoScroll: Slow | Medium | Fast
Title: 運命に囚われし者たち
SubTitle: Prisoners of Fate
Game: Chrono Cross
Music: Yasunori Mitsuda
Arranged by Nozomi Yamada
Tempo = 80


E |----------|-------|----------|--------3--1L------|
B |--3-------|-------|--3-------|-----1-------------|
G |--0-------|-------|--0-------|--0----------------|
D |-----8----|-------|-----8----|-------------------|
A |--3--6----|-------|--3--6----|--------------3L---|
E |-----4----|-------|-----4----|--------------1L---|


--1----------------------------|-----3----------------|
-----------------------3-------|--4-----6-------------|
--------------------5----------|-----------5--5--5----|
-------------------------------|----------------------|
--------------------------3----|--------------3-------|
--------------------------1----|-----------------4----|


----------------------------------------|----------------------|
--------9-----9-----8--6----------------|--3--4----------------|
--7-------------------------------------|--------5-----5-------|
--------------------------8-----8-------|-----------------6----|
--------------------------------6--5----|-----------6--3-------|
--------------------------6-------------|-----------------4----|


----------------------------------------|-----3----------------|
-----------------------3----------------|--4--4--6-------------|
--------------4-----5-------------------|--------5--5--5-------|
--8-----------------------------5-------|--------6--6--5-------|
--------------------------5--------5----|--------------3-------|
--------------------------6-----3-------|-----------------4----|


----------------------------------------|----------------------|--3----------|
--------9-----9-----8--6----------------|--4--6-----4----------|--------1----|
--7-----7-----8-------------------------|--------7-------------|--------2----|
--------------8-----7-----8-------------|--5--------------6----|-----1-------|
--------------------------------6--5----|--------------3-------|-------------|
--------------------------6-------------|-----------------4----|--------1----|


----------|----------------|----------------------|--3-------------------|
--6--3L---|--3-----4--6----|--8--4-----9----------|--4--6--4--3----------|
--5--4L---|--4-------------|--------7-----5-------|--------------5--3----|
-----5L---|--5-------------|--6--------------8----|--------3-------------|
--5-------|----------------|----------------------|--------------3--1----|
--3L-3L---|--3-------------|--------------4--6----|----------------------|


----------------------|-------------------|----------------------|
--1--4--4--6----------|--3-----4--6-------|--8--4-----9----------|
--------------1--6----|--4----------------|--------7-----5-------|
--------------3--6----|--3----------------|--6--------------8----|
-----------------4----|-------------------|----------------------|
--------------1-------|--3----------------|--------------4--6----|


--3-------------------------------|-------|-------|--------------3--------3----|
--4-----6-----4-----3--4----------|--1----|-------|-----------6--------6-------|
--------------------------5--3----|--1----|--3----|--------5--------5----------|
--------------3-------------------|--3----|--3----|-----5----------------------|
--------------------------3--1----|-------|--5----|--3-------------------------|
----------------------------------|--1----|--6----|----------------------------|


-------||
--1----||
--0----||
--3----||
--3----||
-------||

Login or Register to remove this ad.