Ads

Orphanage of Flame (Chrono Cross) Guitar Tab

Submitted: Jan 18, 2013 by sir0nion

5
Average: 5 (2 votes)
Download | Listen
Game: Chrono Cross
Composer(s): Yasunori Mitsuda
Style: Arrangement, Fingerstyle
Series: Chrono

AutoScroll: Slow | Medium | Fast
Song Title: 	Orphanage of Flame
Game: 		Chrono Cross
Composer: 	Yasunori Mitsuda
Tabbed By: 	James Carson
Date: 		01/14/2013
     H        Q    Q        H         H         
E||----------------6----|---8---------8--------|
B||--1--------6----5----|---8---------8--------|
G||--0--------7----6----|--10--------10--------|
D||--1--------7----5----|--10--------10--------|
A||--3--------5---------|---8---------8--------|
E||---------------------|----------------------|


  S S S S S S S S S S S S S S S S    S S S S S S S S S S S S S S S S  
------------------3---------------|----------------------------------|
--3-----------1---------------1---|--0-------------------------------|
------0-------0-------0-------0---|------0-------0-------0-------0---|
----1---1---1---1---1---1---1---1-|----0---0---0---0---0---0---0---0-|
--3-------3-------3-------3-------|--2-------2-------2-------2-------|
----------------------------------|----------------------------------|


  S S S S S S S S S S S S S S S S    S S S S S S S S S S S S S S S S  
------------------3---------------|----------------------------------|
--3-----------1---------------1---|--0-------------------------------|
------0-------0-------0-------0---|------0-------0-------0-------0---|
----1---1---1---1---1---1---1---1-|----0---0---0---0---0---0---0---0-|
--3-------3-------3-------3-------|--2-------2-------2-------2-------|
----------------------------------|----------------------------------|


  S S S S S S S S S S S S S S S S    S S S S S S S S S S S S S S S S  
------------------3---------------|----------------------------------|
--3-----------1---------------1---|--0-------------------------------|
------0-------0-------0-------0---|------0-------0-------0-------0---|
----1---1---1---1---1---1---1---1-|----0---0---0---0---0---0---0---0-|
--3-------3-------3-------3-------|--2-------2-------2-------2-------|
----------------------------------|----------------------------------|


  S S S S S S S S S S S S S S S S    S S S S S S S S S S S S S S S S  
------------------3---------------|----------------------------------|
--3-----------1---------------1---|--0-------------------------------|
------0-------0-------0-------0---|------0-------0-------0-------0---|
----1---1---1---1---1---1---1---1-|----0---0---0---0---0---0---0---0-|
--3-------3-------3-------3-------|--2-------2-------2-------2-------|
----------------------------------|----------------------------------|


  T T T T T T T T S S T T T T T T T T S S  
--8-8-7-7-5-5-7-7-8---8-8-7-7-5-5-7-7-8-5-|
--5-5-5-5-5-5-5-5-5---5-5-5-5-5-5-5-5-5-5-|
--5-5-5-5-5-5-5-5-5---5-5-5-5-5-5-5-5-5-5-|
--7-7-7-7-7-7-7-7-7-7-7-7-7-7-7-7-7-7-7-7-|
--5-5-5-5-5-5-5-5-5-5-5-5-5-5-5-5-5-5-5-5-|
------------------------------------------|


  T T T T T T T T S S T T T T T T T T S S    S S S S E  S S S S S S  
------------------------------------------|-------------------------|
--1-1-0-0-----0-0-1---1-1-0-0-----0-0-1---|--0-------0--0---0-1-0-1-|
--2-2-2-2-2-2-2-2-2---2-2-2-2-2-2-2-2-2-2-|--1-2-0-2-1----2-1---1---|
--1-1-1-1-1-1-1-1-1-1-1-1-1-1-1-1-1-1-1-1-|--2-------2------2---2---|
--2-2-2-2-2-2-2-2-2-2-2-2-2-2-2-2-2-2-2-2-|--2-------2------2---2---|
------------------------------------------|--0---0---0--0---0---0---|


  S S S S S S S S S S S S    E  S S S S S S S S S S  
--------0-----------------|-------------0---1---3---|
--3-1-3---3-1-0-1-0---0-1-|--3--1---3---------------|
--2-------2---0---0-2-0---|--2----2---2---2---2---2-|
--2-------2---0---0---0---|--0----------------------|
--0---0---0---2---2---2---|--0----------------------|
--------------3---3---3---|--1----------------------|


  S S S  S S S S S S  S S  S    H         H         
--5------------5---5h-7-5h-7-|--8---------7--------|
----7--------7---7-----------|--7--------10--------|
------8p-5-8-----------------|--8---------9--------|
-----------------------------|--7---------7--------|
--6--------6-------6---------|------------7--------|
-----------------------------|---------------------|


  S S S S S S S S S S S S S S S S    S S S S S S S S S S S S S S S S  
----------------------------------|----------------------------------|
--3-----------1---0---------------|--0-----------1---0---------------|
------------------------------2---|------------------------------2---|
------3-------3-------3-------3---|------2-------2-------2-------2---|
----0---0---0---0---0---0---0---0-|----2---2---2---2---2---2---2---2-|
--1-------1-------1-------1-------|--0-------0-------0-------0-------|


  S S S S S S S S S S S S S S S S    S S S S S S S S S S S S S S S S  
----------------------------------|----------------------------------|
--3-----------1---0---------------|--0-----------1---0---------------|
------------------------------2---|------------------------------2---|
------3-------3-------3-------3---|------2-------2-------2-------2---|
----0---0---0---0---0---0---0---0-|----2---2---2---2---2---2---2---2-|
--1-------1-------1-------1-------|--0-------0-------0-------0-------|


  S S S S S S S S S S S S S S S S    S S S S S S S S S S S S S S S S  
----------------------------------|----------------------------------|
--3-----------1---0---------------|--0-----------1---0---------------|
------------------------------2---|------------------------------2---|
------3-------3-------3-------3---|------2-------2-------2-------2---|
----0---0---0---0---0---0---0---0-|----2---2---2---2---2---2---2---2-|
--1-------1-------1-------1-------|--0-------0-------0-------0-------|


  S S S S S S S S S S S S S S S S    W                  
----------------------------------|--0----------------||
--3-----------1---0---------------|--0----------------||
------------------------------2---|--1----------------||
------3-------3-------3-------3---|--2----------------||
----0---0---0---0---0---0---0---0-|--2----------------||
--1-------1-------1-------1-------|--0----------------||




Duration Legend
---------------
W - whole
H - half
Q - quarter
E - 8th
S - 16th
T - 32nd
X - 64th
. - note dotted
|-n-|  - n-tuplets


Tablature Legend
----------------
L - tied note
x - dead note
g - grace note
(n) - ghost note
> - accentuded note
NH - natural harmonic
AH - artificial harmonic
TH - tapped harmonic
SH - semi harmonic
PH - pitch harmonic
h - hammer on
p - pull off
b - bend
br - bendRelease
pb - preBend
pbr - preBendRelease
brb - bendReleaseBend
\n/ - tremolo bar dip
\n - tremolo bar dive
-/n - tremolo bar Release up
/n\ - tremolo bar inverted dip
/n - tremolo bar return
-\n - tremolo bar Release down
S - shift slide
s - legato slide
/ -  slide into from below or out of upwards
\ -  slide into from above or out of downwards
~ - vibrato
W - wide vibrato
tr - trill
TP - tremolo picking
T - tapping
S - slap
P - pop
< - fade in
^ - brush up
v - brush down
Login or Register to remove this ad.

1 comment on Orphanage of Flame

The tab sounds really good,

5

The tab sounds really good.

5 star rating, especially the last 10 measures =)