On the Beach of Dreams - Another World (Chrono Cross) Guitar Tab

Submitted: Mar 15, 2011 by thiagobpaiva (Last updated: Mar 19, 2011)

5
Average: 5 (2 votes)
Download | Listen
Game: Chrono Cross
Composer(s): Yasunori Mitsuda
Style: Arrangement, Fingerstyle
Series: Chrono

Click here for a video example.

AutoScroll: Slow | Medium | Fast
On the Beach of Dreams ~ Another World                                
Chrono Cross

Composed by: Yasunori Mitsuda
Tabbed by: Thiago Paiva


(Capo 5)



     H        Q    Q       Q    E  Q    E  E  E     Q    E  Q    E  E  E     Q    E  Q    E  E  E   
E||---------------------|------------------------|------------------------|------------------------|
B||---------------------|----------1----------1--|----------1----------1--|----------1----------1--|
G||---------------------|------------------4-----|------------------4-----|------------------4-----|
D||---------------------|-------2-------2--------|-------2-------2--------|---------------3--------|
A||---------------------|--0---------------------|--0---------------------|-------3----------------|
E||----------------0----|------------------------|------------------3-----|--1---------------------|


  Q    E  E  E  E  Q       Q    E  Q    E  E  E     Q    E  Q    E  Q       Q    E  Q    E  E  E   
------------------------|----------0----------0--|----------1-------0----|------------------------|
----------0-------------|------------------3-----|-----------------------|--3-------3----------3--|
-------------------2----|--0------------0--------|-------0-------0-------|------------------5-----|
------------------------|-------2----------------|-----------------------|-------0-------0--------|
-------3--------3-------|--3---------------------|--3--------------------|------------------------|
--1----------1----------|------------------------|-----------------------|--3---------------------|


  Q    E  Q    E  Q       Q    E  Q    E  E  E     Q    E  Q    E  E  E     Q    E  Q    E  E  E   
-----------------------|------------------------|--5---------------------|------------------------|
----------1------------|----------1----------1--|----------1----------1--|----------1----------1--|
------------------4----|--2---------------4-----|------------------4-----|------------------4-----|
-------0-------0-------|-------2-------2--------|-------2-------2--------|-------3-------3--------|
----------3------------|--0---------------------|--0---------------------|------------------------|
--3--------------------|------------------------|------------------3-----|--1---------------------|


  Q    E  Q    E  Q       Q    E  Q    E  E  E     Q    E  Q    E  Q       Q    E  Q    E  E  E   
-----------------------|----------0----------0--|----------1-------0----|------------------------|
----------0------------|----------1-------3-----|----------1------------|--3-------3----------3--|
------------------2----|--0------------0--------|-------0-------0-------|------------------5-----|
---------------3-------|-------2----------------|-----------------------|-------0-------0--------|
-------3---------------|--3---------------------|--3--------------------|------------------------|
--1--------------------|------------------------|-----------------------|--3---------------------|


  Q    E  Q    E  Q       Q    E  Q    E  E  E     Q    E  Q    E  E  E     Q    E  Q    E  E  E   
-----------------------|------------------------|--5---------------------|------------------------|
----------1------------|----------1----------1--|----------1----------1--|----------1----------1--|
------------------4----|--2---------------4-----|------------------4-----|------------------4-----|
-------0-------0-------|-------2-------2--------|-------2-------2--------|-------3-------3--------|
----------3------------|--0---------------------|--0---------------------|------------------------|
--3--------------------|------------------------|------------------3-----|--1---------------------|


  Q    E  Q    E  Q       Q    E  Q    E  E  E     Q    E  Q    E  Q       Q    E  Q    E  E  E   
-----------------------|--0------------------0--|----------1-------0----|------------------------|
------------------1----|----------1-------3-----|-----------------------|--3-------3----------3--|
----------2------------|-------0-------0--------|-------0-------0-------|------------------5-----|
-------3-------3-------|------------------------|-----------------------|-------0-------0--------|
-----------------------|--3---------------------|--3---------------3----|------------------------|
--1--------------------|------------------------|----------3------------|--3---------------------|


  Q    E  Q    E  Q       Q    E  Q    E  E  E     Q    E  Q    E  E  E     Q    E  Q    E  E  E   
-----------------------|------------------------|------------------------|------------------------|
----------1------------|----------1----------1--|----------1----------1--|--0---------------------|
------------------4----|--2---------------4-----|------------------4-----|----------0----------0--|
-------0-------0-------|-------3-------3--------|-------3-------3--------|-------2-------2--------|
-----------------------|------------------------|------------------------|------------------------|
--3--------------------|--1---------------------|--1---------------1-----|--0---------------0-----|


  Q    E  Q    E  E  E     Q    Q    Q    Q       Q    E  Q    E  E  E     Q    E  Q    E  E   E   
------------------------|----------------------|------------------------|-------------------------|
------------------------|----------------------|----------0-------------|----------0--------------|
----------0-------------|------------2---------|------------------0--2--|------------------0S--2--|
-------2-------2-----2--|------------2---------|--2------------2--------|-------2-------2---------|
------------------------|-------0----0---------|--0---------------------|--0----------------------|
--3---------------0-----|--3--------------0----|-------0----------------|-------------------------|


  Q    E  Q    E  E   E     Q    E  Q    E  E  E     Q    E  Q    E  E  E   
-------------------------|------------------------|------------------------|
----------0--------------|----------1----------1--|----------1----------1--|
------------------0S--2--|--2---------------4-----|------------------4-----|
-------2-------2---------|-------3-------3--------|-------3-------3--------|
--0----------------------|------------------------|------------------------|
-------------------------|--1---------------------|--1---------------------|


  Q    E  Q    E  E  E     Q    E  Q    E  E  E     Q    E  E  Q    Q       H        E  E  E  E   
------------------------|------------------------|-----------------------|-----------------------|
--0------------------0--|--3------------------3--|-------------3---------|--------------------1--|
----------2-------2-----|----------2-------2-----|----------0------------|--2--------------4-----|
-------2-------2--------|-------2-------2--------|-------0----------0----|-----------------------|
------------------------|------------------------|-----------------------|-----------------------|
--0---------------------|--0---------------------|--3--------------------|-----------------------|


  Q    E  Q    E  E  E     E  E  E  E  E  E  Q       W                   H        H         
------------------------|-------------------------|--0----------------|--------------------|
--0---------------------|--0-----------1-----0----|-------------------|--------------------|
----------2----------2--|--------2----------------|-------------------|--------------------|
-------2----------2-----|-------------------------|--2----------------|--0-----------------|
---------------2--------|-------------------------|-------------------|-----------3--------|
--0---------------------|-----0-----0-----0-------|-------------------|--------------------|


  W                                      
-------------------|-------------------||
-------------------|-------------------||
--2----------------|-------------------||
--2----------------|-------------------||
--0----------------|-------------------||
-------------------|-------------------||




Duration Legend
---------------
W - whole
H - half
Q - quarter
E - 8th
S - 16th
T - 32nd
X - 64th
. - note dotted
|-n-|  - n-tuplets


Tablature Legend
----------------
L - tied note
x - dead note
g - grace note
(n) - ghost note
> - accentuded note
NH - natural harmonic
AH - artificial harmonic
TH - tapped harmonic
SH - semi harmonic
PH - pitch harmonic
h - hammer on
p - pull off
b - bend
br - bendRelease
pb - preBend
pbr - preBendRelease
brb - bendReleaseBend
\n/ - tremolo bar dip
\n - tremolo bar dive
-/n - tremolo bar Release up
/n\ - tremolo bar inverted dip
/n - tremolo bar return
-\n - tremolo bar Release down
S - shift slide
s - legato slide
/ -  slide into from below or out of upwards
\ -  slide into from above or out of downwards
~ - vibrato
W - wide vibrato
tr - trill
TP - tremolo picking
T - tapping
S - slap
P - pop
< - fade in
^ - brush up
v - brush down
Login or Register to remove this ad.