Lost Fragments (Chrono Cross) Guitar Tab

Submitted: May 25, 2015 by Pupos

4.75
Average: 4.8 (4 votes)
Download | Listen
Game: Chrono Cross
Composer(s): Yasunori Mitsuda
Style: Arrangement, Fingerstyle
Series: Chrono

Click here for a video example.

AutoScroll: Slow | Medium | Fast
E |--------------7--5--0-------|-----------------------0----|
B |-----------1----------------|--------------3-----3-------|
G |--------4--------------5----|--2--------2----------------|
D |-----2-----------0--7--0----|--------4-------------------|
A |--0-------------------------|-----5----------------------|
E |--------------3-------------|--2-------------------------|

                                                           
--1-----1--3--0-------------|----------------------------||
--------------------1-------|--0--------0--4-------------||
--2-----2-------------------|----------------------------||
--3--3--------------2-------|-----2--4-----1-------------||
--------------3-------------|--2-------------------------||
--1--------------3----------|----------------------------||

                            
---------------------------|
-------0-----0-------------|
o---------0--------2--0----|
o2-----4--------4----------|
----2----------------------|
-0-------------------------|

                                                                                
--------------------------------------------------------------------------------
--------------------------------------------------3-----------------------------
--------------0-----------2-----------------------------------------------0h-2h-
--4-----------------------4-----------------------------------4-----------------
--------------2-----------------------------------------------------------------
--0-----------------------------------------------------------------------------

                                                                          
--------------------|--------------------------0-------------------------|
--------------------|--------------------3-----------------------3-------|
0-------------------|-----------0--------------------------0-------------|
------4-------------|--4L----4-----2-----------------4-------------------|
--------------------|--3L----3-------------------------------------------|
--------------------|----------------------------------------------------|

                                                          
--------------0-------------|----------------------------|
-----------3-----------3----|--------0-----0-----0--2----|
--------0-----------0-------|-----------0----------------|
-----4-----------4----------|--2-----4--------4----------|
--3-------------------------|-----2----------------------|
----------------------------|--0-------------------------|

                          W
--------------0-----------------------------------2g----0g----------------------
--3-----------------------3h-5h-3-----2-----------0-----------3g----------------
--------------------------------------0-----------------------------------2-----
--------------------------4-----------------------------------------------------
--------------2-----------------------------------------------------------------
--0-----------------------------------------------------------------------------


--------------------|--------------0-----0-------|----------------------------|
--------------------|-----0--------0-----0-------|--------------------0-------|
------0-------------|--2-----2-------------------|--------------2-------------|
--------------------|--------3--------3-----3----|--------3--------3-----3----|
------2-------------|-----3----------------------|-----3-----3----------------|
--------------------|--1-------------------------|--1-------------------------|


----------------------------|
--------------3--------3----|
--0-----0-----------0-------|
-----4--4--------4----------|
-----2----------------------|
--0-------------------------|


--------------------------2g-0g---------------------|
--------------------------------3g------------------|
--------------------0-----0-----------2-------------|
--------------4-------------------------------------|
--------2-----------------------------------2-------|
--0-------------------------------------------------|


--------------2g------------|
--0-----0g----3g-------3----|
-----------0--2-----2-------|
-----0--------0--0----------|
----------------------------|
--3-------------------------|


--------------------------------------------------------------------------------
--------------------------------------0g----------1g----------------------------
--0-----------------------0-----------------------------------------------0-----
--------------4-----------------------4h-5h-4-----2-----------------------------
--------------------------2-----------------------3-----------------------------
--0-----------------------------------------------------------------------------


--------------------|
------3-------------|
--------------------|
--------------------|
--------------------|
--------------------|


--7-----------------------------------------------------7h----8h----7-----5-----
--------------------------------------------------------------------------------
--------------------------------------0-----------------------------------------
--------------------0-----------------------------------------------------0-----
--------------------------------------------------------------------------------
--3-----------------------------------------------------------------------------


---------------------3--------------------------2-------------------|
------------------------------3-------------------------------------|
------------2-----------------------------------2-------------------|
--------------------------------------------------------------------|
--------------------------------------------------------------------|
--------------------------------------------------------------------|


--0-----0-------------------|--0-------------------------|
-----3--------------3-------|----------------------------|
--0-----0L----0-------------|--------2-----1-------------|
-----4--------------0-------|-----------2--2-------------|
--3--------------3-----2----|-----2--------2-------------|
----------------------------|--0-------------------------|


--7-----------5-------------|
--5--------8s-7-------------|
--5-----------7--4----------|
--------7-----------4-------|
-----7-----------------5s---|
--5-----------7-------------|


--------------------------3-----------------------2-----------------------3-----
--------------------------3-----------------------------------------------------
--------------------------0-----------------------------------------------------
--------------------------------------------------------------------------------
--3-----------------------------------------------------------------------------
--------------------------------------------------------------------------------


------------------2h-3h-2-----------------------------------------0-------------
------------------------------------------3-------------------------------------
------------------------------------------2-------------------------------------
------------------0-------------------------------------------------------------
--------------------------------------------------------------------------------
--------------------------------------------------------------------------------


------------------------------------|
----------0-------------------------|
------------------------------------|
------------------------------------|
------------------------------------|
------------------------------------|


--7-------------------------------------------------------------------------|
--5--------------------------8--------10-------------------------8h-10h8----|
--5-----------------------------------7-------------------------------------|
--------------------7-----------------9-----------------9-------------------|
-----------7--------------------------9--------9----------------------------|
--5-----------------------------------7-------------------------------------|


--------10------------------|--7-----------5-------------|
--7--8--------------7-------|--5--------5--7-----7-------|
--------------------7-------|--5-----5-----7-----7-------|
--------9--------7-----7----|-----5-----------7----------|
--7--------7s-5-------------|--3-----------5-------------|
----------------------------|----------------------------|


--------------------------3-----------------2h-3h-2-----------------------3-----
--------------------------------------------0-----------------------------------
--------------------------------------------------------------------------------
--2-----------------------------------------------------------------------------
--------------------------------------------------------------------------------
--------------------------------------------------------------------------------


------------------2-----------------------------------------------0-------------
------------------------------------------3-------------------------------------
------------------------------------------------------------------2-------------
------------------0-------------------------------------------------------------
--------------------------------------------------------------------------------
--------------------------------------------------------------------------------


------------------------------------|
----------0-------------------------|
------------------------------------|
------------------------------------|
------------------------------------|
------------------------------------|


--7-----------------------5--------3--------2-------|
--5-----------------5-----------------3-------------|
--5-----------5-----------------2-----------2-------|
--------5-----------------0-------------------------|
--3-------------------------------------------------|
----------------------------------------------------|


--0--------0---------------|||
--------0-----4------------|||
--------------------------o|||
-----4--------------------o|||
--2-----------2------------|||
---------------------------|||
Login or Register to remove this ad.

1 comment on Lost Fragments

Very Cool

5

Thanks for another great Chrono Cross arrangement.