Ads

Lost Before Light (Chrono Cross) Guitar Tab

Submitted: Jun 30, 2013 by Aleqh

4.5
Average: 4.5 (2 votes)
Download | Listen
Game: Chrono Cross
Composer(s): Yasunori Mitsuda
Style: Arrangement, Fingerstyle
Series: Chrono

This song is also called Previously Lost Lamp

Click here for a video example.

AutoScroll: Slow | Medium | Fast
            Previously Lost Lamp             


Track 1 (Capo 2)
      E  E  E  E  E  E  E  E   
E||------------3--2-----------|
B||------0--3--------2-----0--|
G||*--------4-----------2-----|
D||*-----0-----0--------------|
A||---2-----------0--4-----4--|
E||---------------------------|


  E  E  E  E  E  E  E  E   
--------------------------|
--2-----0--2-----0--2--0--|
--------0-----2-----0-----|
-----0-----0-----0-----0--|
--------------------------|
--3-----------------------|


  W                   
--------------------||
--L-----------------||
-------------------*||
--L----------------*||
--------------------||
--------------------||


  E  E  E  E  E  E  E  E   
--------------------0--2--|
-----------0--2--3--------|
-----0--2-----------0-----|
--------2-----4-----------|
-----2-----2-----2-----2--|
--0-----------------------|


  E  E  E  E  E  E  E  E   
--2--------3--0-----------|
-----------------------3--|
--------0-----------2-----|
-----0-----------2--------|
--------------0-----------|
--3-----------------------|


  E  E  E  E  E  E  E  E   
--------------2--0--9--0--|
--2-----2--3--2-----------|
--------4-----4-----------|
-----4-----4-----4--L-----|
--2-----------------------|
--------------------------|


  ^                  
  W                  
--5----------------||
--5----------------||
--6----------------||
--7----------------||
--7----------------||
-------------------||




Duration Legend
---------------
W - whole
H - half
Q - quarter
E - 8th
S - 16th
T - 32nd
X - 64th
. - note dotted
|-n-|  - n-tuplets


Tablature Legend
----------------
L - tied note
x - dead note
g - grace note
(n) - ghost note
> - accentuded note
NH - natural harmonic
AH - artificial harmonic
TH - tapped harmonic
SH - semi harmonic
PH - pitch harmonic
h - hammer on
p - pull off
b - bend
br - bendRelease
pb - preBend
pbr - preBendRelease
brb - bendReleaseBend
\n/ - tremolo bar dip
\n - tremolo bar dive
-/n - tremolo bar Release up
/n\ - tremolo bar inverted dip
/n - tremolo bar return
-\n - tremolo bar Release down
S - shift slide
s - legato slide
/ -  slide into from below or out of upwards
\ -  slide into from above or out of downwards
~ - vibrato
W - wide vibrato
tr - trill
TP - tremolo picking
T - tapping
S - slap
P - pop
< - fade in
^ - brush up
v - brush down
Login or Register to remove this ad.