Ads

Lizard Dance (Chrono Cross) Guitar Tab

Submitted: Aug 28, 2012 by sir0nion (Last updated: Aug 28, 2012)

5
Average: 5 (5 votes)
Download | Listen
Game: Chrono Cross
Composer(s): Yasunori Mitsuda
Style: Arrangement, Fingerstyle
Series: Chrono

This song is also called Dancing the Tokage

AutoScroll: Slow | Medium | Fast
Song Title: 	Lizard Dance
Game: 		Chrono Cross
Composer: 	Yasunori Mitsuda
Tabbed By: 	James Carson
Date: 		08/28/2012
                                                     |--3--|     
     E  E  E  E  S E  S E  E     E  E  E  E  S S S S S  S  S E   
E||---------------------------|---------------------------------|
B||--3-----------0------1-----|-----3--------0---1---0h-1p-0----|
G||--------2------------------|-----------2------------------2--|
C||--------0------------------|--------0------------------------|
G||-----------4------------0--|-----------4------------------0--|
D||--0--3----------0--0-3-----|--0--3----------0---0-3----------|


                                                  |--3--|     
  E  E  E  E  S E  S E  E     E  E  E  E  S S S S S  S  S E   
---------------------------|---------------------------------|
--3-----------0------1-----|-----3--------0---1---0h-1p-0----|
--------2------------------|-----------2------------------2--|
--------0------------------|--------0------------------------|
-----------4------------0--|-----------4------------------0--|
--0--3----------0--0-3-----|--0--3----------0---0-3----------|


                                                  |--3--|     
    E.  S Q    E.  S E  E     E  S E.  E  S S S S S  S  S E   
|--------------------------|---------------------------------|
|---3----------0-----1-----|-----3--------0---1---0h-1p-0----|
|*--------2----------------|-----------2------------------2--|
|*-----------------2-0--2--|---------------------------------|
|--------------------------|----------------------2-------0--|
|---0---0------------------|-------0---0----0---0------------|


                                                |--3--|     
  E.  S Q    E.  S E  E     E  S E.  E  S S S S S  S  S E   
-------------------------|---------------------------------|
--3----------0-----1-----|-----3--------0---1---0h-1p-0----|
--------2----------------|-----------2------------------2--|
-----------------2-0--2--|---------------------------------|
-------------------------|----------------------2-------0--|
--0---0------------------|-------0---0----0---0------------|


                                                   |--3--|     
  E.  S S S S S E.  S E  E     E  S E.  E  S S S S S  S  S E   
----------------------------|---------------------------------|
--3-------------0-----1-----|-----3--------0---1---0h-1p-0----|
--------2-------------------|-----------2------------------2--|
----------2-0-2-----2-0--2--|---------------------------------|
----------------------------|----------------------2-------0--|
--0---0---------------------|-------0---0----0---0------------|


                                                   |--3--|     
  E.  S S S S S E.  S E  E     E  S E.  E  S S S S S  S  S E   
----------------------------|---------------------------------|
--3-------------0-----1-----|-----3--------0---1---0h-1p-0----|
--------2-------------------|-----------2------------------2--|
----------2-0-2-----2-0--2--|---------------------------------|
----------------------------|----------------------2-------0--|
--0---0---------------------|-------0---0----0---0------------|


  E.  E  S S S E.  S E  E     E   S S E  E   S E  S S S E   
--8--------7---8--------7--|--8--10---8--7--------------3--|
---------------------------|----------------10-------------|
---------------------------|-------------------------------|
-----------0---------0-----|-------------------------------|
---------7---7-----7----7--|------------------------0-2-0--|
--0---0--------------------|--------0----0-----0--0--------|


  E  S S S S S S E  S S  E  E      E.  E.  E.  E  S S S E   
--5--7---8---7---5----------7--|---------------------------|
--------------------8---10-----|--10-----------------------|
-------------------------------|---------------------------|
-------------0-----------0-----|---------------------------|
-----------7---7------7-----7--|--------------------0-2-0--|
--0----0-----------------------|-------0---0---0--0--------|


  E.  E  S S S E.  S E  E     E   S S E  E   S E  S S S E   
--8--------7---8--------7--|--8--10---8--7--------------3--|
---------------------------|----------------10-------------|
---------------------------|-------------------------------|
-----------0---------0-----|-------------------------------|
---------7---7-----7----7--|------------------------0-2-0--|
--0---0--------------------|--------0----0-----0--0--------|


  E  S S S S S S E  S S  E  E      E.  E.  E.  E  S S S E   
--5--7---8---7---5----------7--|---------------------------|
--------------------8---10-----|--10-----------------------|
-------------------------------|---------------------------|
-------------0-----------0-----|---------------------------|
-----------7---7------7-----7--|--------------------0-2-0--|
--0----0-----------------------|-------0---0---0--0--------|


                       |---3--|                                      
  E.  E  S S E   E   S S   S  S S  S    S S S  E.  E.  S S S S S E   
--5---3----5----10--10-8h-10p-8-7----|--7-8-7------------0---1---0--|
--5---3----5----------------------10-|--------10--------------------|
-------------------------------------|------------------------------|
-----------------------0-------------|------------------------------|
---------7-5-7-------7----------7----|-----------------------0-2-0--|
--0---0------------------------------|---------0---0---0---0--------|


                       |---3--|                              |--3--|     
  E.  E  S S E   E   S S   S  S S  S    S S S  E.  E  S E  S S  S  S E   
--5---3----5----10--10-8h-10p-8-7----|--7-8-7---------------------------|
--5---3----5----------------------10-|--------10------1------0h-1p-0----|
-------------------------------------|-------------------------------2--|
-----------------------0-------------|----------------------------------|
---------7-5-7-------7----------7----|-----------------------2-------0--|
--0---0------------------------------|---------0---0----0--0------------|


                       |---3--|                                      
  E.  E  S S E   E   S S   S  S S  S    S S S  E.  E.  S S S S S E   
--5---3----5----10--10-8h-10p-8-7----|--7-8-7------------0---1---0--|
--5---3----5----------------------10-|--------10--------------------|
-------------------------------------|------------------------------|
-----------------------0-------------|------------------------------|
---------7-5-7-------7----------7----|-----------------------0-2-0--|
--0---0------------------------------|---------0---0---0---0--------|


                       |---3--|                              |--3--|       
  E.  E  S S E   E   S S   S  S S  S    S S S  E.  E  S E  S S  S  S E     
--5---3----5----10--10-8h-10p-8-7----|--7-8-7----------------------------||
--5---3----5----------------------10-|--------10------1------0h-1p-0-----||
-------------------------------------|-------------------------------2--*||
-----------------------0-------------|----------------------------------*||
---------7-5-7-------7----------7----|-----------------------2-------0---||
--0---0------------------------------|---------0---0----0--0-------------||




Duration Legend
---------------
W - whole
H - half
Q - quarter
E - 8th
S - 16th
T - 32nd
X - 64th
. - note dotted
|-n-|  - n-tuplets


Tablature Legend
----------------
L - tied note
x - dead note
g - grace note
(n) - ghost note
> - accentuded note
NH - natural harmonic
AH - artificial harmonic
TH - tapped harmonic
SH - semi harmonic
PH - pitch harmonic
h - hammer on
p - pull off
b - bend
br - bendRelease
pb - preBend
pbr - preBendRelease
brb - bendReleaseBend
\n/ - tremolo bar dip
\n - tremolo bar dive
-/n - tremolo bar Release up
/n\ - tremolo bar inverted dip
/n - tremolo bar return
-\n - tremolo bar Release down
S - shift slide
s - legato slide
/ -  slide into from below or out of upwards
\ -  slide into from above or out of downwards
~ - vibrato
W - wide vibrato
tr - trill
TP - tremolo picking
T - tapping
S - slap
P - pop
< - fade in
^ - brush up
v - brush down
Login or Register to remove this ad.

3 comments on Lizard Dance

I have to shit really bad

5

I have to shit really bad too.

Very nice!

5

Very nice!

This is sweet. So funky.

5

This is sweet. So funky. Biggest "worth it" rhythmic challenge since Mushroom Forest from Little Nemo (passersby, go try the bass/melody on that biznitch too).