Ads

Life ~ Distant Promise (Chrono Cross) Guitar Tab

Submitted: Jun 14, 2013 by Colin_spade

5
Average: 5 (6 votes)
Download | Listen
Game: Chrono Cross
Composer(s): Yasunori Mitsuda
Style: Arrangement, Artificial harmonics, Fingerstyle
Series: Chrono

AutoScroll: Slow | Medium | Fast
Life ~ Faraway Promise                              


                                                                Yasunori Mitsuda
Track 1



       W                     W                     W                 
E||---------------------|--<>2----------------|--<>0----------------|
B||--<>0----------------|---------------------|---------------------|
G||---------------------|---------------------|---------------------|
D||---------------------|---------------------|---------------------|
A||---------------------|---------------------|---------------------|
E||---------------------|---------------------|---------------------|


    W                     W                     W                 
--<>5----------------|--<>2----------------|---------------------|
---------------------|---------------------|--<>2----------------|
---------------------|---------------------|---------------------|
---------------------|---------------------|---------------------|
---------------------|---------------------|---------------------|
---------------------|---------------------|---------------------|


    W                   W                     W                 
---------------------|-------------------|---------------------|
--<>3----------------|--L----------------|--<>0----------------|
---------------------|-------------------|---------------------|
---------------------|-------------------|---------------------|
---------------------|-------------------|---------------------|
---------------------|-------------------|---------------------|


    W                     W                     W                 
--<>2----------------|--<>0----------------|--<>5----------------|
---------------------|---------------------|---------------------|
---------------------|---------------------|---------------------|
---------------------|---------------------|---------------------|
---------------------|---------------------|---------------------|
---------------------|---------------------|---------------------|


    W                     W                     W                 
--<>2----------------|---------------------|---------------------|
---------------------|--<>2----------------|--<>3----------------|
---------------------|---------------------|---------------------|
---------------------|---------------------|---------------------|
---------------------|---------------------|---------------------|
---------------------|---------------------|---------------------|


                      |--3--|  |--3--|  |--3--|  |--3--|   
  W                   E  E  E  E  E  E  E  E  E  E  E  E   
-------------------|-----2--0--5--2--------2--0--5--2-----|
--L----------------|--0--------------2--0--------------2--|
-------------------|--------------------------------------|
-------------------|--------------------------------------|
-------------------|--------------------------------------|
-------------------|--------------------------------------|


  |--3--|  |--3--|  |--3--|  |--3--|     |--3--|  |--3--|  |--3--|  |--3--|   
  E  E  E  E  E  E  E  E  E  E  E  E     E  E  E  E  E  E  E  E  E  E  E  E   
-----2--0--5--2--------2--0--5--2-----|-----2--0--5--2--------2--0--5--2-----|
--0--------------2--0--------------2--|--0--------------2--0--------------2--|
--------------------------------------|--------------------------------------|
--------------------------------------|--4-----------------------------------|
--------------------------------------|--------------------------------------|
--------------------------------------|--------------------------------------|


  |--3--|  |--3--|  |--3--|  |--3--|     |--3--|  |--3--|  |--3--|  |--3--|   
  E  E  E  E  E  E  E  E  E  E  E  E     E  E  E  E  E  E  E  E  E  E  E  E   
-----2--0--5--2--------2--0--5--2-----|-----2--0--5--2--------2--0--5--2-----|
--0--------------2--0--------------2--|--0--------------2--0--------------2--|
--------------------------------------|--------------------------------------|
--4-----------------------------------|--------------------------------------|
--2-----------------------------------|--------------------------------------|
--------------------------------------|--------------------------------------|


  |--3--|  |--3--|  |--3--|  |--3--|     |--3--|  |--3--|  |--3--|  |--3--|   
  E  E  E  E  E  E  E  E  E  E  E  E     E  E  E  E  E  E  E  E  E  E  E  E   
-----2--0--5--2--------2--0--5--2-----|-----2--0--5--2--------2--0--5--2-----|
--0--------------2--0--------------2--|--0--------------2--0--------------2--|
--------------------------------------|--2-----------------------------------|
--4-----------------------------------|--4-----------------------------------|
--2-----------------------------------|--5-----------------------------------|
--0-----------------------------------|--------------------------------------|


  |--3--|  |--3--|  |--3--|  |--3--|     |--3--|  |--3--|  |--3--|  |--3--|   
  E  E  E  E  E  E  E  E  E  E  E  E     E  E  E  E  E  E  E  E  E  E  E  E   
--------------------------------------|--------------------------------------|
--3--------0-----------------0--------|--3--------0--------2--------0--------|
--4-----2-----2-----------2-----2-----|--2-----2-----2-----2-----2-----2-----|
-----0-----------0-----0-----------0--|-----2-----------2-----2-----------2--|
--------------------------------------|--0-----------------0-----------------|
--3-----------------3-----------------|--------------------------------------|


  |--3--|  |--3--|  |--3--|  |--3--|     |--3--|  |--3--|  |--3--|  |--3--|   
  E  E  E  E  E  E  E  E  E  E  E  E     E  E  E  E  E  E  E  E  E  E  E  E   
--------------------------------------|--------------------0-----------------|
--2-----------------------------------|--3-----------------0--------0--------|
--2-----2--4--2-----------2--4--2-----|--4-----2--4--2-----------2-----2-----|
-----4-----------4-----4-----------4--|-----4-----------4-----4-----------4--|
--2-----------------2-----------------|--2-----------------0-----------------|
--------------------------------------|--------------------------------------|


  |--3--|  |--3--|  |--3--|  |--3--|     |--3--|  |--3--|  |--3--|  |--3--|   
  E  E  E  E  E  E  E  E  E  E  E  E     E  E  E  E  E  E  E  E  E  E  E  E   
--2-----------------------------------|--7-----------------5--------------3--|
--0--------0-----------------0--------|-----------0-----------------0--------|
--------2-----2-----------2-----2-----|--------------------------2-----2-----|
-----0-----------0-----0-----------0--|--------7-----7--------2-----------2--|
--------------------------------------|-----7-----------7--0-----------------|
--3-----------------3-----------------|--5-----------------------------------|


  |--3--|  |--3--|  |--3--|  |--3--|     |--3--|  |--3--|  |--3--|  |--3--|   
  E  E  E  E  E  E  E  E  E  E  E  E     E  E  E  E  E  E  E  E  E  E  E  E   
--2-----------------------------------|--------------------------------------|
--3-----------------------------------|--------------------2--------0--------|
--------2--4--2-----------2--4--2-----|--------2--4--2-----2-----2-----2-----|
-----4-----------4-----4-----------4--|-----4-----------4-----4-----------4--|
--2-----------------2-----------------|--2-----------------0-----------------|
--------------------------------------|--------------------------------------|


  |--3--|  |--3--|  |--3--|  |--3--|     |--3--|  |--3--|  |--3--|  |--3--|   
  E  E  E  E  E  E  E  E  E  E  E  E     E  E  E  E  E  E  E  E  E  E  E  E   
--------------------2-----------------|--0-----------------5-----------------|
--0--------0-----------------0--------|--2--------0-----------------0--------|
--------2-----2-----------2-----2-----|--------2-----2-----------2-----2-----|
-----0-----------0-----0-----------0--|-----2-----------2-----2-----------2--|
--------------------------------------|--0-----------------0-----------------|
--3-----------------3-----------------|--------------------------------------|


  |--3--|  |--3--|  |--3--|  |--3--|     |--3--|  |--3--|  |--3--|  |--3--|   
  E  E  E  E  E  E  E  E  E  E  E  E     E  E  E  E  E  E  E  E  E  E  E  E   
--2-----------------------------------|--------------------------------------|
--------------------2-----------------|--3--------------------------2--------|
--------2--4--2-----------2--4--2-----|--------2--4--2-----------2-----2-----|
-----4-----------4-----4-----------4--|-----4-----------4-----4-----------4--|
--2-----------------2-----------------|--2-----------------0-----------------|
--------------------------------------|--------------------------------------|


  |--3--|  |--3--|  |--3--|  |--3--|     |--3--|  |--3--|  |--3--|  |--3--|   
  E  E  E  E  E  E  E  E  E  E  E  E     E  E  E  E  E  E  E  E  E  E  E  E   
--------------------2-----------------|--0-----------------5-----------------|
--0--------0-----------------0--------|-----------0-----------------0--------|
--------2-----2-----------2-----2-----|--------2-----2-----------2-----2-----|
-----0-----------0-----0-----------0--|-----2-----------2-----2-----------2--|
--------------------------------------|--0-----------------0-----------------|
--3-----------------3-----------------|--------------------------------------|


  |--3--|  |--3--|  |--3--|  |--3--|     |--3--|  |--3--|  |--3--|  |--3--|   
  E  E  E  E  E  E  E  E  E  E  E  E     E  E  E  E  E  E  E  E  E  E  E  E   
--2-----------------9-----------------|--7-----------------------------------|
--3--------0-----------------0--------|-----------0-----------------0--------|
--------2-----------------------------|--------------------------2-----2-----|
-----4--------7-----------7-----7-----|--------7-----7--------4-----------4--|
--2--------------9-----9-----------9--|-----9-----------9--0-----------------|
--------------------7-----------------|--7-----------------------------------|


  |--3--|  |--3--|  |--3--|  |--3--|     |--3--|  |--3--|  |--3--|  |--3--|   
  E  E  E  E  E  E  E  E  E  E  E  E     E  E  E  E  E  E  E  E  E  E  E  E   
--------------------2-----------------|--0-----------------5-----------------|
--0--------0-----------------0--------|-----------0-----------------0--------|
--------2-----2-----------2-----2-----|--------2-----2-----------2-----2-----|
-----0-----------0-----0-----------0--|-----2-----------2-----2-----------2--|
--------------------------------------|--0-----------------0-----------------|
--3-----------------3-----------------|--------------------------------------|


  |--3--|  |--3--|  |--3--|  |--3--|     |--3--|  |--3--|  |--3--|  |--3--|   
  E  E  E  E  E  E  E  E  E  E  E  E     E  E  E  E  E  E  E  E  E  E  E  E   
--2-----------------------------------|--------------------------------------|
--------------------2-----------------|--3--------------------------2--------|
--------2--4--2-----------2--4--2-----|--------2--4--2-----------2-----2-----|
-----4-----------4-----4-----------4--|-----4-----------4-----4-----------4--|
--2-----------------2-----------------|--2-----------------2-----------------|
--------------------------------------|--------------------------------------|


  |--3--|  |--3--|  |--3--|  |--3--|     |--3--|  |--3--|  |--3--|  |--3--|   
  E  E  E  E  E  E  E  E  E  E  E  E     E  E  E  E  E  E  E  E  E  E  E  E   
--------------------2-----------------|--0-----------------------------------|
-----------0-----------------0--------|-----------0--------3--------2--------|
--------2-----2-----------2-----2-----|--------2-----2-----------2-----2-----|
-----0-----------0-----0-----------0--|-----2-----------2-----2-----------2--|
--------------------------------------|--0-----------------0-----------------|
--3-----------------3-----------------|--------------------------------------|


  |--3--|  |--3--|  |--3--|  |--3--|     |--3--|  |--3--|  |--3--|  |--3--|   
  E  E  E  E  E  E  E  E  E  E  E  E     E  E  E  E  E  E  E  E  E  E  E  E   
--------------------------------------|--------------------------------------|
--0--------0-----------------0--------|-----------0-----------------0--------|
--------2-----2-----------2-----2-----|--------2-----2-----------2-----2-----|
-----4-----------4-----4-----------4--|-----4-----------4-----4-----------4--|
--2-----------------2-----------------|--2-----------------2-----------------|
--------------------------------------|--------------------------------------|


                        ^                     ^                   
  W                     Q.     E  H           Q.     E  H         
-------------------||----------2--L--------|---------5--L--------|
-------------------||---0------------------|--5------------------|
-------------------||*---------------------|---------------------|
-------------------||*--0------------------|---------------------|
--2----------------||----------------------|--4------------------|
-------------------||---3------------------|--5------------------|


                         ^         ^            ^                   
  Q.     E  Q    Q       Q    Q    Q    Q       Q.     E  H         
--2-------------------|----------------------|---------2--L--------|
---------2--L----2----|--3----2----3---------|--0------------------|
----------------------|-----------------2----|---------------------|
----------------------|--0----2----4----0----|--0------------------|
--4-------------------|--2---------0---------|---------------------|
--2-------------------|----------------------|--3------------------|


  Q.     E  H           Q.     E  Q    Q       H        H         
---------5--L--------|--2------9--L----7----|--------------------|
--5------------------|----------------------|--------------------|
---------------------|----------------------|--------------------|
---------------------|--0-------------------|--0-----------------|
--4------------------|--2------7--L----4----|--2--------4--------|
--5------------------|----------------------|-----------5--------|


  ^                                                                
  Q.     E  H           Q.     E  H           Q.     E  Q    Q     
---------2--L--------|---------5--L--------|--2-------------------|
--0------------------|--5------------------|---------2--L----2----|
---------------------|---------------------|----------------------|
--0------------------|---------------------|----------------------|
---------------------|--4------------------|--4-------------------|
--3------------------|--5------------------|--2-------------------|


  ^         ^            ^                                          
  Q    Q    Q    Q       Q.     E  H           Q.     E  Q    Q     
----------------------|---------2--L--------|--0-------------------|
--3----2----3---------|--0------------------|---------3--L----2----|
-----------------2----|---------------------|----------------------|
--0----2----4----0----|--0------------------|---------0--L----2----|
--2---------0---------|---------------------|--4-------------------|
----------------------|--3------------------|--5-------------------|


  ^                   ^                                         
  W                   W                   Q.     E  E  Q    E   
--0----------------|--L----------------|------------2--3----5--|
--0----------------|--L----------------|-----------------------|
--2----------------|--L----------------|---------2-------------|
--2----------------|--L----------------|--0--------------------|
--2----------------|--L----------------|-----------------------|
--0----------------|--L----------------|--3--------------------|


  E  Q    E  E  Q    E     Q    E  E  E  E  E  E     E  E  E  E  E  E  E  E   
-----0------------------|----------2--L-----------|--0-----------------------|
----------3--L--2----2--|--L----0--------------0--|--------3-----2-----------|
------------------------|-------------------2-----|-----------------------2--|
--2---------------------|--4-------------4--------|-----4-----4--2-----4-----|
--0---------------------|--2----------------------|--------------0--0--------|
------------------------|-------------------------|--------------------------|


  Q.     E  E  Q    E     E  Q    E  E  Q.        Q.     E  Q    Q     
------------2--3----5--|-----0-----------------|--0--------------0----|
-----------------------|----------3--L--2------|---------0--L---------|
---------2-------------|-----------------------|----------------------|
--0--------------------|--2--------------------|----------------------|
-----------------------|--0--------------------|--2-------------------|
--3--------------------|-----------------------|--0-------------------|


  Q.     S S H           Q.     E  E  Q    E     E  Q    E  E  Q    E   
--2------3-2-0--------|------------2--3----5--|-----0------------------|
----------------------|-----------------------|----------3--L--2----2--|
----------------------|---------2-------------|------------------------|
----------------------|--0--------------------|--2---------------------|
--4-------------------|-----------------------|--0---------------------|
--2-------------------|--3--------------------|------------------------|


  Q    E  E  H           H        E  E  E  E     H        E  E  E  E   
----------2--0--------|--L-----------0--2--0--|--L-----------0--2--0--|
--2-------------------|-----------3-----------|-----------3-----------|
-------4--------------|-----------------------|-----------------------|
--4-------------------|-----------2-----------|--0--------------------|
--2-------------------|-----------0-----------|-----------------------|
----------------------|-----------------------|--3--------------------|


  H        Q    E  E     W                   H        H         
-----------0----------|-------------------|--------------------|
----------------3--2--|-------------------|--0--------2--------|
----------------------|--3----------------|--------------------|
--2-------------------|--4----------------|--4--------4--------|
--0-------------------|-------------------|--------------------|
----------------------|-------------------|--------------------|


  E  E  E  E  E  E  E  E     E  E  E  E  E  E  E  E   
-----------2--------------|--0--------5--------------|
--0-----------------------|--------------------------|
--------------------------|--------------------------|
-----0-----0-----0-----0--|-----2-----2-----2-----2--|
--------------------------|--0-----0-----0-----0-----|
--3-----3-----3-----3-----|--------------------------|


  E  E  E  E  E  E  E  E     E  E  E  E  E  E  E  E   
--2-----------------------|--------------------------|
-----------2--------2-----|--3-----2-----3-----------|
--------------------------|--------------------2-----|
--------------------------|-----4-----4-----4-----4--|
-----4-----4-----4-----4--|--2-----2-----0-----0-----|
--2-----2-----2-----2-----|--------------------------|


  E  E  E  E  E  E  E  E     E  E  E  E  E  E  E  E   
-----------2--------------|--0--------5--------------|
--0-----------------------|--------------------------|
--------------------------|--------------------------|
-----0-----0-----0-----0--|-----2-----2-----2-----2--|
--------------------------|--0-----0-----0-----0-----|
--3-----3-----3-----3-----|--------------------------|


  E  E  E  E  E  E  E  E     E  E  E  E  E  E  E  E   
-----------9--------7-----|--------------------------|
--7-----------------------|--------------------------|
--------------------------|--------------------------|
--------------------------|--------------------------|
-----9-----9-----9-----9--|-----9-----9-----7-----7--|
--7-----7-----7-----7-----|--7-----7-----5-----5-----|


  E  E  E  E  E  E  E  E     E  E  E  E  E  E  E  E   
-----------2--------------|--0--------5--------------|
--0-----------------------|--------------------------|
--------------------------|--------------------------|
-----0-----0-----0-----0--|-----2-----2-----2-----2--|
--------------------------|--0-----0-----0-----0-----|
--3-----3-----3-----3-----|--------------------------|


  E  E  E  E  E  E  E  E     E  E  E  E  E  E  E  E   
--2-----------------------|--------------------------|
-----------2--------2-----|--3-----2-----3-----------|
--------------------------|--------------------2-----|
--------------------------|-----4-----4-----4-----4--|
-----4-----4-----4-----4--|--2-----2-----0-----0-----|
--2-----2-----2-----2-----|--------------------------|


  E  E  E  E  E  E  E  E     E  E  E  E  E  E  E  E   
-----------2--------------|--0-----------------------|
--0-----------------------|-----------3--------2-----|
--------------------------|--------------------------|
-----0-----0-----0-----0--|-----2-----2-----2-----2--|
--------------------------|--0-----0-----0-----0-----|
--3-----3-----3-----3-----|--------------------------|


                             ^                   
  E  E  E  E  E  E  E  E     W                   
--------------------------|--------------------||
--0-----------------------|--0-----------------||
--------------------------|--4----------------*||
--------2-----------2-----|--6----------------*||
-----2-----2-----2-----2--|--7-----------------||
--0-----------0-----------|--------------------||




Duration Legend
---------------
W - whole
H - half
Q - quarter
E - 8th
S - 16th
T - 32nd
X - 64th
. - note dotted
|-n-|  - n-tuplets


Tablature Legend
----------------
L - tied note
x - dead note
g - grace note
(n) - ghost note
> - accentuded note
NH - natural harmonic
AH - artificial harmonic
TH - tapped harmonic
SH - semi harmonic
PH - pitch harmonic
h - hammer on
p - pull off
b - bend
br - bendRelease
pb - preBend
pbr - preBendRelease
brb - bendReleaseBend
\n/ - tremolo bar dip
\n - tremolo bar dive
-/n - tremolo bar Release up
/n\ - tremolo bar inverted dip
/n - tremolo bar return
-\n - tremolo bar Release down
S - shift slide
s - legato slide
/ -  slide into from below or out of upwards
\ -  slide into from above or out of downwards
~ - vibrato
W - wide vibrato
tr - trill
TP - tremolo picking
T - tapping
S - slap
P - pop
< - fade in
^ - brush up
v - brush down
Login or Register to remove this ad.

5 comments on Life ~ Distant Promise

Christ your tabs are good.

5

Christ your tabs are good. You're top tier, never stop posting!

Sounds great!

5

Sounds great!

Never thought this could be

5

Never thought this could be made into a decent fingerstyle arrangement, great work.

Fuckin awesome buddy!

5

Fuckin awesome buddy!

thnaks for the comments :D

thnaks for the comments :D