Ads

Garden of the Gods (Chrono Cross) Guitar Tab

Submitted: Dec 04, 2012 by scarecrowlol (Last updated: Dec 09, 2012)

5
Average: 5 (8 votes)
Download | Listen
Game: Chrono Cross
Composer(s): Yasunori Mitsuda
Style: Arrangement, Fingerstyle
Series: Chrono

AutoScroll: Slow | Medium | Fast
Title: Garden of Gods
SubTitle: Chrono Cross
Artist: Yasanori Mitsuda
Music: Tabbed by Mitch Jackson
Tempo = 95

  (**--> Capo 5 <--**)

Tune: G string down 2 semi-tones
      Low E string down 2 semi-tones

 3/4
           ^                      ^                      ^                      ^                      ^
     Q     H                Q     H                Q     H                Q     H                Q     H
E |--0-------------------|----------------------|----------------------|--3-------------------|--0-------------------|
B |--------1-------------|--1-----1-------------|--3-----1-------------|--------1-------------|--------1-------------|
F |--------0-------------|--------0-------------|--------0-------------|--------0-------------|--------0-------------|
D |--------2-------------|--------2-------------|--------2-------------|--------2-------------|--------2-------------|
A |--------0-------------|--------0-------------|--------0-------------|--------0-------------|--------0-------------|
D |--0-------------------|--0-------------------|--0-------------------|--0-------------------|--0-------------------|

           ^                      ^                      ^     Fermata
     Q     Q     Q          Q     H                Q     Q.      E         E  E  E  E  E  E       E  E  E  E  E  E
  |----------------------|----------------------|----------------------||--0-----------0-------|--3-------------------|
  |--1-----1-----3-------|--------1-------------|--------1-------------||--------3-----1-------|----------------------|
  |--------0-------------|--4-----0-------------|--------0-------------||o----------0----------|--------------2--5----|
  |--------2-------------|--------2-------------|--------2-------------||o-------2-------------|--------1--3----------|
  |--------0-------------|--------0-------------|--------0-------------||-----0-----------0----|-----1----------------|
  |--0-------------------|--0-------------------|--0-------------------||--0-------------------|--1-------------------|


                                                                          ^
     E  E  E  E  E  E       E  E  E  E  E  E       E  E  E  E  E  E       E  E  E  E  E  E       E  E  E  E  E  E
  |--0-----------0-------|--3-------------------|--0-----------0-------|--5-----------3-------|----------------------|
  |--------3-----1-------|----------------------|--------3-----1-------|----------------------|--8--------------8----|
  |-----------0----------|--------------2--5----|-----------0----------|--4-----------4--7----|-----------7--9-------|
  |--------2-------------|--------1--3----------|--------2-------------|--3-----3--5----------|--------5-------------|
  |-----0-----------0----|-----1----------------|-----0-----------0----|-----3----------------|-----5----------------|
  |--0-------------------|--1-------------------|--0-------------------|--3-------------------|--5-------------------|



     E  E  E  E  E  E       E  E  E  E  E  E       E  E  E  E  E  E       E  E  E  E  E  E       E  E  E  E  E  E
  |--7--8--7-------------|--0-----------0-------|--3-------------------|--0-----------0-------|--3-------------------|
  |-----------8----------|--------3-----1-------|----------------------|--------3-----1-------|----------------------|
  |--------------9--6----|-----------0----------|--------------2--5----|-----------0----------|--------------2--5----|
  |----------------------|--------2-------------|--------1--3----------|--------2-------------|--------1--3----------|
  |----------------------|-----0-----------0----|-----1----------------|-----0-----------0----|-----1----------------|
  |----------------------|--0-------------------|--1-------------------|--0-------------------|--1-------------------|


                            ^
     E  E  E  E  E  E       E  E  E  E  E  E       E  E  E  E  E  E       E  E  E  E  E  E       E  E  E  E  E  E
  |--0-----------0-------|--5-----------3-------|----------------------|--7--8--7-------------|--8-------------------|
  |--------3-----1-------|----------------------|--8--------------8----|-----------8----------|----------------------|
  |-----------0----------|--4-----------4--7----|-----------7--9-------|--------------9--6----|--------------7--11---|
  |--------2-------------|--3-----3--5----------|--------5-------------|----------------------|--------7--9----------|
  |-----0-----------0----|-----3----------------|-----5----------------|----------------------|-----7----------------|
  |--0-------------------|--3-------------------|--5-------------------|----------------------|--7-------------------|


                                                                          ^
     E  E  E  E  E  E       E  E  E  E  E  E       E  E  E  E  E  E       E  E  E  E  E  E       E  E  E  E  E  E
  |--10----------7-------|--8-----------7-------|--5-----3-------------|--5-------------------|--7-----------3-------|
  |----------------------|----------------------|-----------------3----|-----------------1----|----------------------|
  |--------------6-------|--------------4--6----|-----------2--6-------|--0--------0--4-------|-----------2--6--2----|
  |--------5--7-----5----|--------3--5----------|--------2-------------|--------2-------------|--------2-------------|
  |-----5----------------|-----3----------------|-----2----------------|-----0----------------|-----2----------------|
  |--5-------------------|--3-------------------|--2-------------------|--0-------------------|--2-------------------|



     E  E  E  E  E  E       E  E  E  E  E  E       E  E  E  E  E  E       E  E  E  E  E  E       E  E  E  E  E  E
  |--5-------------------|--10----------7-------|--8-------------------|--10----------7-------|--8-----------7-------|
  |-----------------5----|----------------------|----------------------|----------------------|----------------------|
  |-----------4--7-------|--------------6-------|--------------7--11---|--------------6-------|--------------4--6----|
  |--------3-------------|--------5--7-----5----|--------7--9----------|--------5--7-----5----|--------3--5----------|
  |-----3----------------|-----5----------------|-----7----------------|-----5----------------|-----3----------------|
  |--3-------------------|--5-------------------|--7-------------------|--5-------------------|--3-------------------|


                            ^                                                                       ^        Fermata
     E  E  E  E  E  E       E  E  E  E  E  E       E  E  E  E  E  E       E  E  E  E  E  E       E  H           E
  |--5-----3-------------|--5-------------------|--5-----7-----8-------|--7-------------------|-----4L----------L----||
  |-----------------3----|-----------------1----|----------------------|-----------------5----|-----5----------------||
  |-----------2--6-------|--0--------0--4-------|-----------4--7-------|-----------4--6-------|--6------------------o||
  |--------2-------------|--------2-------------|-----1--4--------4----|--------2-------------|---------------------o||
  |-----2----------------|-----0----------------|----------------------|-----2----------------|----------------------||
  |--2-------------------|--0-------------------|--1-------------------|--2-------------------|----------------------||



     E  E  E  E  E  E       E  E  E  E  E  E       E  E  E  E  E  E       E  E  E  E  E  E       E  E  E  E  E  E
  |--0-----------0-------|--3-------------------|--0-----------0-------|--3-------------------|--0-----------0-------|
  |--------3-----1-------|----------------------|--------3-----1-------|----------------------|--------3-----1-------|
  |-----------0----------|--------------2--5----|-----------0----------|--------------2--5----|-----------0----------|
  |--------2-------------|--------1--3----------|--------2-------------|--------1--3----------|--------2-------------|
  |-----0-----------0----|-----1----------------|-----0-----------0----|-----1----------------|-----0-----------0----|
  |--0-------------------|--1-------------------|--0-------------------|--1-------------------|--0-------------------|


     ^                                                                    ^
     E  E  E  E  E  E       E  E  E  E  E  E       E  E  E  E  E  E       H.
  |--5-----------3-------|----------------------|--7--8--7-------------|--0-------------------||
  |----------------------|--8--------------8----|-----------8----------|--1-------------------||
  |--4-----------4--7----|-----------7--9-------|--------------9--6----|--4-------------------||
  |--3-----3--5----------|--------5-------------|----------------------|--2-------------------||
  |-----3----------------|-----5----------------|----------------------|--0-------------------||
  |--3-------------------|--5-------------------|----------------------|--0-------------------||

Login or Register to remove this ad.

6 comments on Garden of the Gods

Holy shit, this was great!!!

Holy shit, this was great!!! And I love the tuning!

I also just tried it out with no capo, I might like it better, the chords are so damn full! (helps that i'm 6'3", big hands)

Thanks that means a lot :3

Thanks that means a lot :3 those are some big hands O_o

Agree. Wish I had a baritone

Agree. Wish I had a baritone guitar for dis be da shiz

Nice job, it sounds good ^^ I

5

Nice job, it sounds good ^^ the same tuning than your CC tab http://www.gametabs.net/chrono-trigger/memories-green#comment-70313 ,if it can encourage people to detune ..

Cheers :3 yea its defs my fav

Cheers :3 yea its defs my fav tuning so far so hopefully others will try it out

There's one chord I've been

5

There's one chord I've been playing slightly different, it doesn't remove from the fingering at all, its just adding one note:

|-5--|
|-3--|
|-4--|
|-3--|
|----|
|-3--|

I just pluck with all 5 fingers leaving the 5th string off.