Another Aruni (Chrono Cross) Bass/Guitar Tab

Submitted: Jul 29, 2016 by Les vieilles bi...

0
Download | Listen
Game: Chrono Cross
Composer(s): Yasunori Mitsuda
Style: 2 or more instruments, Transcription
Series: Chrono

AutoScroll: Slow | Medium | Fast
Title: Another Aruni village (Chrono cross)



Track 1: Accompagnement

E|---------3-------4----|---------3-------1----|---------3-------4----|---------3-------1----|
B|---------4-------4----|---------4-------4----|---------4-------4----|---------4-------4----|
G|-----3-------3--------|-----3-------3--------|-----3-------3--------|-----3-------3--------|
D|-1--------------------|-1--------------------|-1--------------------|-1--------------------|
A|----------------------|----------------------|----------------------|----------------------|
E|----------------------|----------------------|----------------------|----------------------|


E|---------3-------4----|---------1------------|---------3-------4----|---------1------------|
B|---------4-------4----|-----------------4----|---------4-------4----|-----------------4----|
G|-----3-------3--------|---------3-------3----|-----3-------3--------|---------3-------3----|
D|----------------------|-----1-------1--------|----------------------|-----1-------1--------|
A|----------------------|----------------------|----------------------|----------------------|
E|----------------------|----------------------|----------------------|----------------------|


E|---------3-------6---6---|---------4----3----|---------1-------4-------|-3---3-------1---3---6---|
B|---------1-------1-------|---------4----4----|---------1---------------|-4---4---4---------------|
G|-------------------------|-------------------|-------------3-----------|-----3-------------------|
D|-----5-------5-----------|-----1-------------|-----3---------------3---|-------------------------|
A|-------------------------|-------------------|-------------------------|-------------------------|
E|-------------------------|-------------------|-------------------------|-------------------------|


E|---------3-------6-------|-----------------1----|---------------------3---|---------1------------|
B|---------4-------4-------|-------------2--------|-------------3---4-------|--------------1---3---|
G|-----3-------3-------3---|---------3------------|---------5---------------|----------------------|
D|-------------------------|-----3----------------|-----5-------------------|-----1----------------|
A|-------------------------|----------------------|-------------------------|----------------------|
E|-------------------------|----------------------|-------------------------|----------------------|


E|-3-------3---------------|-3-----------------|-------------------------|-------------------|
B|-----------------3-------|-------------------|-----------------1---4---|-6-----------------|
G|-----3-------3-------4---|---------5---------|-------------3-----------|---------3---------|
D|-------------------------|-----5-------5-----|-----1---3---------------|-----3-------3-----|
A|-------------------------|-------------------|-------------------------|-------------------|
E|-------------------------|-------------------|-------------------------|-------------------|


E|-------------1---3---4---|-3------|-------------------------|---------1-------4-------|
B|---------4---------------|--------|-------------1---4-------|---------2-------4-------|
G|-----3-------------------|--------|---------3-----------1---|-----1-------1-------1---|
D|-------------------------|--------|-----1-------------------|-------------------------|
A|-------------------------|--------|-------------------------|-------------------------|
E|-------------------------|--------|-------------------------|-------------------------|


E|-4-----------1---3---4---|-3-------4-------6-------|-------------------------|-------------1---4-------|
B|---------4---------------|---------4-------4-------|-1-----------1---4-------|-2-------2---------------|
G|-----3-------------------|-----3-------3-------3---|---------3---------------|-----1---------------1---|
D|-------------------------|-------------------------|-----1---------------1---|-------------------------|
A|-------------------------|-------------------------|-------------------------|-------------------------|
E|-------------------------|-------------------------|-------------------------|-------------------------|


E|-4-----------1---3---4---|-3-----------3---4---6---|---------1---3---4-------|-----------------1---4---|
B|---------4---------------|---------4---------------|-----1---------------1---|---------2---4-----------|
G|-3---1-------------------|-----3-------------------|-------------------------|-----1-------------------|
D|-------------------------|-------------------------|-------------------------|-------------------------|
A|-------------------------|-------------------------|-------------------------|-------------------------|
E|-------------------------|-------------------------|-------------------------|-------------------------|


E|-4-----------1---3---4---|-3-----------1---3-------|-4---------------1---4---|---------------|
B|-4-------4---------------|---------4---------------|---------2---4-----------|---------2-----|
G|-----3-------------------|-----3---------------3---|-------------------------|-----1---------|
D|-------------------------|-------------------------|-----1-------------------|---------------|
A|-------------------------|-------------------------|-------------------------|-4-------------|
E|-------------------------|-------------------------|-------------------------|---------------|


E|-4---------------4-------|----------------------|-4---------------4-------|-----------------4-------|
B|---------1---4-------4---|-1-------1---4----1---|-------------4-------4---|-------------4-----------|
G|-----1-------------------|-----1----------------|---------4---------------|-4-------4-----------4---|
D|-------------------------|----------------------|-----1-------------------|-----6-------------------|
A|-------------------------|----------------------|-------------------------|-------------------------|
E|-------------------------|----------------------|-------------------------|-------------------------|


E|----------------|----------------|------------|--------|
B|----------------|----------------|------------|--------|
G|----------3-----|----------3-----|------------|-3------|
D|-----3----------|-----3----------|-------3----|--------|
A|----------------|----------------|------------|--------|
E|----------------|----------------|------------|--------|





Track 2: Mélodie

E|--------|--------|--------|------------|-15----16-15-13--11--|-13----------------|
B|--------|--------|--------|-------11---|---------------------|-----11-------11---|
G|--------|--------|--------|------------|---------------------|---------13--------|
D|--------|--------|--------|------------|---------------------|-------------------|
A|--------|--------|--------|------------|---------------------|-------------------|
E|--------|--------|--------|------------|---------------------|-------------------|


E|-15----16-15-13--11--|-13------18----16--|-15----16-15-13--11--|-13-----------11---|
B|---------------------|-----11------------|---------------------|-----11------------|
G|---------------------|-------------------|---------------------|---------13--------|
D|---------------------|-------------------|---------------------|-------------------|
A|---------------------|-------------------|---------------------|-------------------|
E|---------------------|-------------------|---------------------|-------------------|


E|-13-------------|---------------|-15----18---|-16---------|-15----18---|-16---23---22---|
B|------11--------|-----------11--|-8-----11---|-9-----18---|-8-----11---|----------------|
G|-----------13---|-12------------|------------|------------|------------|----------------|
D|----------------|---------------|------------|------------|------------|----------------|
A|----------------|---------------|------------|------------|------------|----------------|
E|----------------|---------------|------------|------------|------------|----------------|


E|-23-------------|---------------|------------|------------|--------|--------|------------|
B|------23---21---|-20--------18--|-20----21---|------------|--------|--------|-1-----4----|
G|------15--------|-------20--10--|------------|-22----20---|-20-----|-20-----|------------|
D|----------------|---------------|------------|------------|--------|--------|------------|
A|----------------|---------------|------------|------------|--------|--------|------------|
E|----------------|---------------|------------|------------|--------|--------|------------|


E|------------|--------|--------|------------|------1---------|--------|--------|------------|
B|-2-----1----|--------|--------|-1-----4----|-2----2----4----|-4------|--------|-1-----4----|
G|-1----------|-3------|-3------|------------|-----------6----|-3------|-3------|------------|
D|------------|-1------|-1------|------------|----------------|--------|--------|------------|
A|------------|--------|--------|------------|----------------|--------|--------|------------|
E|------------|--------|--------|------------|----------------|--------|--------|------------|


E|------------|--------|--------|--------|-------6----|--------|-------6----|--------|
B|-2-----1----|--------|--------|--------|-------4----|--------|-------4----|--------|
G|------------|-3------|-3------|-1------|------------|-1------|------------|-1------|
D|------------|--------|--------|--------|------------|--------|------------|--------|
A|------------|--------|--------|--------|------------|--------|------------|--------|
E|------------|--------|--------|--------|------------|--------|------------|--------|


E|--------|-1---------1----|-6----1---------|--------|------------|
B|--------|------4---------|-----------4----|-3------|-------11---|
G|--------|----------------|----------------|--------|------------|
D|--------|----------------|----------------|--------|------------|
A|--------|----------------|----------------|--------|------------|
E|--------|----------------|----------------|--------|------------|





Track 3: Graves

G|--------|--------|--------|---------------|---------------|-1-------------|---------------|
D|--------|--------|--------|---------------|-1---------1---|-1-------------|-1---------1---|
A|--------|--------|--------|-----------1---|---------------|-----------1---|---------------|
E|--------|--------|--------|---------------|---------------|---------------|---------------|


G|-1-------------|---------------|-----------1-------|------------|---------------|
D|-1---------1---|-1-------------|-------1-------1---|-------3----|-1-------------|
A|---------------|-3---------3---|-------------------|-1----------|-----------1---|
E|---------------|---------------|-4-----------------|------------|---------------|


G|---------------|-----------3-------|----------------|-1---------1---3---|---------------|
D|-1---------1---|-------3-------3---|-------5--------|-------1-----------|-1-----1-------|
A|---------------|-1-----------------|-3----------3---|-------------------|-----------1---|
E|---------------|-------------------|----------------|-------------------|---------------|


G|---------------|--------|-3---------3-------|---------------|--------|-1------|---------------|
D|---------------|--------|-------3-------3---|-1-------------|-1------|--------|---------------|
A|-3-----3---1---|--------|-------------------|-----------1---|--------|--------|-4---------1---|
E|---------------|-4------|-------------------|---------------|--------|--------|---------------|


G|---------------|--------|--------|---------------|---------------3---|------------|
D|-1-------------|-1------|--------|---------------|-1---------1-------|-1----------|
A|-----------1---|--------|-3------|-4---------4---|-------1-----------|-------1----|
E|---------------|--------|--------|---------------|-------------------|------------|


G|-------------------|-------1--------|---------------3---|------------|--------|-------1--------|
D|-----------3-------|----------------|-1---------1-------|-1----------|--------|----------------|
A|-------3-------3---|-4----------4---|-------1-----------|-------1----|-4------|------------4---|
E|-1-----------------|----------------|-------------------|------------|--------|----------------|


G|--------|-------1--------|--------|-------1-----|-3-------------|-3-------------|
D|--------|----------------|--------|-------------|-----------3---|-----------3---|
A|-3------|------------3---|--------|-------------|---------------|---------------|
E|--------|----------------|-4------|-------------|---------------|---------------|


G|-3------|--------|
D|--------|--------|
A|--------|--------|
E|--------|--------|





Track 4: Ambiance

E|--------|--------|--------|--------|--------|--------|--------|--------|--------|
B|--------|--------|--------|--------|--------|--------|--------|--------|--------|
G|--------|--------|--------|--------|--------|--------|--------|--------|--------|
D|--------|--------|--------|--------|--------|--------|--------|--------|--------|
A|--------|--------|--------|--------|--------|--------|--------|--------|--------|
E|--------|--------|--------|--------|--------|--------|--------|--------|--------|


E|--------|--------|--------|-3------|-4------|-3------|-4------|-3------|-3------|
B|--------|--------|--------|--------|--------|--------|--------|--------|--------|
G|--------|--------|--------|--------|--------|--------|--------|--------|--------|
D|--------|--------|--------|--------|--------|--------|--------|--------|--------|
A|--------|--------|--------|--------|--------|--------|--------|--------|--------|
E|--------|--------|--------|--------|--------|--------|--------|--------|--------|


E|-3------|-1------|--------|--------|--------|-1------|-4------|-3----4----6----|
B|--------|--------|-4------|-4------|-4------|--------|--------|----------------|
G|--------|--------|--------|--------|--------|--------|--------|----------------|
D|--------|--------|--------|--------|--------|--------|--------|----------------|
A|--------|--------|--------|--------|--------|--------|--------|----------------|
E|--------|--------|--------|--------|--------|--------|--------|----------------|


E|--------|--------|-4------|-3------|--------|--------|-4------|-3------|-4------|
B|-1------|-2------|--------|--------|-1------|-2------|--------|--------|--------|
G|--------|--------|--------|--------|--------|--------|--------|--------|--------|
D|--------|--------|--------|--------|--------|--------|--------|--------|--------|
A|--------|--------|--------|--------|--------|--------|--------|--------|--------|
E|--------|--------|--------|--------|--------|--------|--------|--------|--------|


E|-4------|-4------|-4------|-4------|-4------|-6------|-6------|-6------|-6------|
B|--------|--------|--------|--------|--------|--------|--------|--------|--------|
G|--------|--------|--------|--------|--------|--------|--------|--------|--------|
D|--------|--------|--------|--------|--------|--------|--------|--------|--------|
A|--------|--------|--------|--------|--------|--------|--------|--------|--------|
E|--------|--------|--------|--------|--------|--------|--------|--------|--------|



Login or Register to remove this ad.