Another Arni Village (Chrono Cross) Guitar Tab

Submitted: May 29, 2010 by diralark (Last updated: Dec 04, 2010)

5
Average: 5 (10 votes)
Download | Listen
Game: Chrono Cross
Composer(s): Yasunori Mitsuda
Style: Arrangement, Fingerstyle
Series: Chrono

AutoScroll: Slow | Medium | Fast
                                      Arni Village ~ Another ( from Chrono Cross  )

Music by Yasunori Mitsuda >> piano arrang. by Blue Dragon >> tab by Diralark

Guitar (tempo 78, let ring)

           ^     ^             ^                   ^     ^             ^            
     E  E  E  E  Q       E  E  E  E  Q       E  E  E  E  Q       E  E  E  E  E  E   
E||--------2-----3----|--------2-----0----|--------2-----3----|--------2-----5-----|
B||--------3-----3----|--------3-----3----|--------3-----3----|--------3-----5-----|
G||-----2-----2-------|-----2-----2--0----|-----2-----2-------|-----2-----2--0-----|
D||--0----------------|--0----------------|--0----------------|--0-----------------|
A||-------------------|-------------------|-------------------|-----------------0--|
E||-------------------|-------------------|-------------------|--------------------|


                                                                                   III -]  
    ^                      ^                    ^                      ^                   
    E  E  E  S  S E  E     E  E  E  E  E  E     E  E  E  S  S E  E     E  E  E  E  E   E   
|---2-----2--3p-2-0-----|--0-----0-----------|--2-----2--3p-2-0-----|--0-----5---------3--|
|---------3----------3--|--------------3-----|--------3----------3--|--------5-----3------|
|*-----2-----2----------|-----2-----0-----2--|-----2-----2----------|-----2-----0---------|
|*--0----------------0--|--------------------|--0----------------0--|---------------------|
|-----------------------|--------------------|----------------------|---------------------|
|-----------------------|--3-----------------|----------------------|--3---------------3--|


  II                                                                                  
  ^                      ^                    ^                                       
  E  E  E  S  S E  E     E  E  E  E  E  E     E  E  E  E  E  E     E  E  E  E  E  E   
--2-----2--3p-2-0-----|--0-----------2-----|--0-----------0-----|--2-----------------|
--------3--0-------3--|--------0-----3-----|--------3-----2-----|--------------------|
----------------------|-----2--0-----4--0--|--------2--------2--|-----------------2--|
-----4----------------|-----------0--------|-----2-----2--------|--0-----0--2--4-----|
--2----------------2--|--------------------|--0-----------------|-----0--------5-----|
----------------------|--3-----------------|--------------------|--------------------|


                                            II             -]    III                  
                       ^                                                              
  E  E  E  E  E  E     E  E  E  E  E  E     E  E  E  E  E  E     E   E   E  E  E  E   
--2-----2-----5-----|--3-----------0-----|--2-----------5-----|--3------10-----9-----|
--3-----3-----3-----|--1--------1--------|--3--------2--3-----|--3-------------0-----|
--2--2-----2--------|--------2--------0--|--4-----4-----------|--4-------------------|
--0--------------0--|-----2--------------|-----4-----------4--|------0------0--------|
--------------------|--0--------------0--|--2-----------------|-------------------0--|
--------------------|--------------------|--------------------|--3-------------------|


               II                -]                                                  
                        ^                    ^                    ^                  
   E  E  E  E  E  E     E  E  E  E  E  E     E  E  E  E  E  E     E  E  E  E  E  E   
--10-----5-----3-----|--2--------------0--|--2-----------3-----|--0-----------------|
---7-----7-----2-----|--------------3-----|--0-----------0--3--|--0-----------3-----|
---------7--------2--|--------4-----------|--------0--2--------|--------2-----2-----|
---0-----------------|-----4-----4--------|-----0--------------|-----2-----2-----2--|
------0-----0--------|--2-----------0-----|--2-----------------|--0-----------------|
---------------------|--------------------|--------------------|--------------------|


                       ^                                          ^     ^                           
  E  E  E  E  E  E     H.              E  E  E  E  E  E     E  E  E  E  E  E     E  E  E  E  E  E   
--------------------|---------------|--------------------|--------0-----------|--------------------|
--3-----------------|--3------------|--0--------0--3-----|--1-----1-----3-----|--------------------|
-----------------0--|---------------|--0-----2--------0--|-----0-----0--4--0--|--2--------------0--|
--0-----0--2--4-----|--4------------|-----0--------------|--2-----------------|--0-----0--2--4-----|
-----0--------5-----|--5------------|--------------------|--3-----------------|-----0--------5-----|
--------------------|---------------|--3-----------------|--------------------|--------------------|


  ^                                               ^     ^                           
  E  E  E  E  E  E     E  E  E  E  E  E     E  E  E  E  E  E     E  E  E  E  E  E   
--2-----------------|--------------------|--------0-----------|--------------------|
--------------------|--0--------0--3-----|--1-----1-----3-----|--3-----------------|
-----2--0--2-----2--|--0-----2--------0--|-----0-----0--4--0--|--2--------------0--|
--0-----------4-----|-----0--------------|--2-----------------|--0-----0--2--4-----|
--------------------|--------------------|--3-----------------|-----0--------5-----|
--------------------|--3-----------------|--------------------|--------------------|


  ^                    ^                                                            
  E  E  E  E  E  E     E  E  E  E  E  E     E  E  E  E  E  E     E  E  E  E  E  E   
--------------------|--------0--2--3-----|--------------0-----|--------------0--3--|
--------------------|--0--0--------3-----|--1-----1--3--0-----|--------------------|
--2-----------0--2--|--------------------|-----0-----------0--|--0-----7-----------|
--4-----0--4--------|--2-----------------|--2-----------------|--7--7--------------|
-----0--------0-----|-----------------2--|--3-----------------|--5--------7--------|
--------------------|--0-----------------|--------------------|--------------------|


  ^                   ^                                         ^                  
  E  E  E  E  Q       E  E  E  E  E  E     E  E  E  E  E  E     E  E  E  E  E  E   
--2--------0--2----|--3-----------0--3--|--------------5--3--|--3-----------3-----|
--------3----------|--------1--3--------|--------1-----3-----|--------0--3-----3--|
-----2--------2----|-----0--------------|-----0-----0--------|-----0--------------|
--0----------------|--------------------|--------------------|--------------------|
-------------------|--3-----------------|--3-----------------|--2-----------------|
-------------------|--------------------|--------------------|--------------------|


                       III                   --                   V                  
                       ^                                          ^                  
  E  E  E  E  E  E     E   E  E  E  E  E     E  E  E  E  E  E     E  E  E  E  E  E   
--------------5-----|--3------------3-----|--------------3-----|--5-----------5-----|
--------0--3-----0--|------------3-----3--|-----------3--------|-----5-----5-----5--|
-----0-----0--------|---------3-----------|--------3--------3--|--------7-----------|
--------------------|------5--------------|-----5-----5--------|--------------------|
--2-----------------|--6------------------|--6-----------------|--0-----------------|
--------------------|---------------------|--------------------|--------------------|


  --                   --               --] |1st ending     |2nd ending   Tempo 60               
                       ^                                                           ^     ^     
  E  E  E  E  E  E     H        Q       H        E  E       H.              E  E   E  E  Q     
--5-----------5-----|--5-------------|------------------||---------------|--------------------|
-----5-----5-----5--|-----------5----|------------------||---------------|---------7-----8----|
--6-----6-----------|--6-------------|-----------2-----*||---------------|---------7-----7----|
--------------------|--7-------------|--7--------------*||--7------------|--0--7------7-------|
--0-----------------|----------------|--------------0---||---------------|--------------------|
--------------------|----------------|------------------||---------------|--------------------|

rall.......................................tempo 40
        ^                   ^              ^                               
  E  E  E  E  Q       E  E  E  E  Q        H.              H        Q      
--------------0----|--------------5----|--10------------|--L-------------||
--------7----------|--------7-----5----|----------------|----------------||
--------7-----0----|--------7----------|----------------|----------------||
--0--7-----7-------|--0--7-----7-------|----------------|----------------||
-------------------|-------------------|----------------|----------------||
-------------------|--------------5----|--10------------|--L-------------||


NOTE : an alt fingersteps tablature is included inside the .zip archive


Legend
---------------
W - whole
H - half
Q - quarter
E - 8th
S - 16th
. - note dotted
L - tied note
^ - brush up
Login or Register to remove this ad.

6 comments on Another Arni Village

Love this, even though I

5

Love this, even though I can't play it that well yet

really accurate!

5

this is really good! you're an excellent arranger of songs diralark

thanks for your

thanks for your encouragements :)

Quite nice =)

5

Quite nice =)

My recording of

5

My recording of this:

https://youtu.be/A57Ke_-hAQ4

Thanks diralark!!!!!

Hello, I don't have

Hello, I don't have "diralark" accout in Youtube at this moment so you can't find my comment there.I can tell your different guitar performances rest gently in my memory and my heart ^^ and more, coz I can learn much from you about how to play it efficiently (emotionaly speaking), so for that thanks to you too. Both, we are a good team ^^