Ads

Final Breath (Child of Light) Guitar Tab

Submitted: Jun 12, 2014 by Basisti94 (Last updated: Jul 17, 2014)

5
Average: 5 (2 votes)
Download | Listen
Game: Child of Light
Composer(s): Cœur de pirate
Style: Arrangement, Fingerstyle

AutoScroll: Slow | Medium | Fast
    	 	Final Breath
                                
Child of Light
Coeur de pirate
Guitar Arrangement by Basisti94 (Miro Laaksonen)
12.6.2014



Capo 5
Tempo ~ 55

     W                   Q    E  E  Q    E  E     Q    Q    H         
E||-------------------|----------0--2----0-----|--2------------------|
B||--3----------------|--3------------------3--|---------------------|
G||-------------------|------------------------|-------2-------------|
D||-------------------|-------4----------4-----|-------4-------------|
A||--2----------------|--2----------2----------|--0---------0--------|
E||-------------------|------------------------|---------------------|


  Q    E  E  Q    E  E     Q    Q    Q    Q       Q    E  E  Q    E  E   
----------0--2----0-----|--2--------------2----|--0---------------------|
--3------------------3--|----------------------|----------3--2----3--5--|
------------------------|-------2--------------|------------------------|
-------4----------4-----|-------4---------4----|------------------2-----|
--2----------2----------|--0---------0---------|--2----------0----------|
------------------------|----------------------|------------------------|


  S S E  Q    Q    E  E     Q    E  E  Q    E  E     Q    Q    Q    Q     
-------------------------|--3-------2-------------|----------------------|
--3-2--------------2--3--|-------------2-------3--|--0-------------------|
------4------------------|-------0----------------|----------------------|
---------4---------4-----|-------2----------2-----|-------4---------4----|
--2-----------2----------|--2----------0----------|--2---------2---------|
-------------------------|------------------------|----------------------|


  Q    E  E  E  E  E  E     Q    E  E  Q    E  E     Q    E  E  E  E  E  E   
-------------------------|------------------------|-------------------------|
--0----0--0--2--0-----0--|-------2--3-------2--3--|----------------0--2--3--|
-------------------2-----|--4----------4----------|--0----0--2--------------|
-------0-----------2-----|-------4----------4-----|-------0-----------2-----|
-------------0-----------|--2----------2----------|-------------0-----------|
--3----------------------|------------------------|--3----------------------|


  E  E  E  E  Q    E  E     E  E  E  E  Q    E  E     Q    E  E  Q    E  E   
-----2-------------------|--3-----3--2--0----------|------------------------|
--------3--2-------2--3--|-------------------3--2--|--3----2--3-------2--3--|
--4-----------4----------|-----0-------------------|-------------4----------|
--------4----------4-----|--------0----------2-----|-------4----------4-----|
--2-----------2----------|--------------0----------|--2----------2----------|
-------------------------|--3----------------------|------------------------|


  Q    E  E  E  E  Q       Q    Q    Q    Q       Q    E  E  Q    E  E   
--3-------2--0----------|----------------------|-------------2----------|
----------------3--2----|--0-------------------|--3-------5-------5--3--|
------------------------|----------------------|-------4----------------|
-------0-----------2----|-------4---------4----|------------------4-----|
-------------0----------|--2---------2---------|--2----------2----------|
--3---------------------|----------------------|------------------------|


  E  E  Q    Q    E  E     Q    E  E  E  E  E  E     E  E  E  E  E  E  E  E   
--2------------------2--|-------------2-----------|--2-----5-----5-----5-----|
------------------------|--3-------5-----5--5--3--|--------------------------|
-----2--2---------------|-------------------------|-----2-----2-----2-----2--|
--------0---------0-----|-------4-----------4-----|--------0-----------------|
--0---------------------|--2----------2-----------|--0-----------------------|
-------------3----2-----|-------------------------|--------------3-----2-----|


  E  E  E  E  E  E  E  E     E  E  E  E  Q    E  E     E  E  E  E  E  E  E  E   
--3-----3--2--------------|----------------------0--|--0-----------------------|
-----0--------2-----2--3--|--3-----------3----3-----|-----3--3--2--2--------0--|
-----0-----------2--------|-----4-----4-------------|--------0--------2--2-----|
--------------------2-----|--------4-----4----4-----|--------------------2-----|
--2-----------0-----------|--2----------------------|--------------0-----------|
--------------------------|-------------------------|--3-----------------------|


  E  E  Q    E  E  E  E     Q    E  E  E  E  E  E     W                  
--------7----------------|-------------------------|-------------------||
-------------------------|-------------------------|-------------------||
--4----------4-----4-----|-------------------------|-------------------||
-----4----------4-----4--|--4----4-----4-----4-----|--0----------------||
--2----------------------|--2----------------------|--2----------------||
-------------------------|----------2-----2-----2--|-------------------||




Duration Legend
---------------
W - whole
H - half
Q - quarter
E - 8th
S - 16th
T - 32nd
X - 64th
. - note dotted
|-n-|  - n-tuplets


Tablature Legend
----------------
L - tied note
x - dead note
g - grace note
(n) - ghost note
> - accentuded note
NH - natural harmonic
AH - artificial harmonic
TH - tapped harmonic
SH - semi harmonic
PH - pitch harmonic
h - hammer on
p - pull off
b - bend
S - shift slide
s - legato slide
/ -  slide into from below or out of upwards
\ -  slide into from above or out of downwards
~ - vibrato
W - wide vibrato
tr - trill
TP - tremolo picking
T - tapping
S - slap
P - pop
< - fade in
^ - brush up
v - brush down
Login or Register to remove this ad.

1 comment on Final Breath

Great!

5

It was a pretty nice arrangement buddy, beautiful! I was waiting it for a long time!