Ads

Inside Identity (Chūnibyō Demo Koi ga Shitai!) Guitar Tab

Submitted: Dec 15, 2013 by corntastic (Last updated: Dec 17, 2013)

3
Average: 3 (2 votes)
Download | Listen
Game: Chūnibyō Demo Koi ga Shitai!
Composer(s): ZAQ
Style: Alternate picking, Transcription

AutoScroll: Slow | Medium | Fast
Inside Identity
Chuu2
Zaq, Black Raison D'être
corntastic
15/12/13


e-------------------------------5-----------------------------------------
B--------5--6--5-----7-5---5--7-------------------------------------------
G--4--7-----------7------7------------------------------------------------
D-------------------------------------------------------------------------
A-------------------------------------------------------------------------
E-------------------------------------------------------------------------

______________________________________________________________________________________


e--------------------------------------------------5----------------------
B--7--7--7-5--7--7-5------------7--7--7-7-5-7--5-7---7--------------------
G--------------------7--4--7----------------------------------------------
D-------------------------------------------------------------------------
A-------------------------------------------------------------------------
E-------------------------------------------------------------------------

e-------------------------------------------------------------------------
B--7--7--7-7-5-7--7-5----------5-----5-----5---5---5-7-5------------------
G---------------------7--4--7-----7-----7----7---7-------7----------------
D-------------------------------------------------------------------------
A-------------------------------------------------------------------------
E-------------------------------------------------------------------------

e------------------------------------------------------5------------------
B--7-7-7-7-7-7-5--7--7-5------------7-7-7-7-7-7-5-7--7----7---------------
G------------------------7--4--7------------------------------------------
D-------------------------------------------------------------------------
A-------------------------------------------------------------------------
E-------------------------------------------------------------------------

e-------------------------------------------------------------------------
B--7-7--7-7--7-7--7-5-------------------5---------5-----------------------
G---------------------7--4--7--7--7--7-----7--4-7-------------------------
D-------------------------------------------------------------------------
A-------------------------------------------------------------------------
E-------------------------------------------------------------------------

______________________________________________________________________________________


e--7-----------7----------------------------------------------------------
B-------10--7----10--7-----------7-8--10-10-------------------------------
G-----------------------9--7--9-------------------------------------------
D-------------------------------------------------------------------------
A-------------------------------------------------------------------------
E-------------------------------------------------------------------------

e----------7--------------------------------------------------------------
B--8g10---------10--7-----------------------7-----------------------------
G----------------------9----7--6--7----9----------------------------------
D-------------------------------------------------------------------------
A-------------------------------------------------------------------------
E-------------------------------------------------------------------------

e-----7--7-----------7----------------------------------------------------
B--10---------10--7----10--7-----------7-8--10-10-------------------------
G-----------------------------9--7--9-------------------------------------
D-------------------------------------------------------------------------
A-------------------------------------------------------------------------
E-------------------------------------------------------------------------

e------7--------7---------------------------------------------------------
B--10-----10---------10--7------------------7-8-10------------------------
G--------------------------9--7--9-9-9-9--9-------------------------------
D-------------------------------------------------------------------------
A-------------------------------------------------------------------------
E-------------------------------------------------------------------------

______________________________________________________________________________________


e-------7---------7-----------7-------------------------------------------
B--7---------7--7-------7--7-------10----7--------------------------------
G-------------------------------------------------------------------------
D-------------------------------------------------------------------------
A-------------------------------------------------------------------------
E-------------------------------------------------------------------------

e-------------------------------------------------------------------------
B-----7----------7--10--7-7-----------------7-7---------------------------
G--9-----9----9-------------9--7--7-9--7-9--------------------------------
D-------------------------------------------------------------------------
A-------------------------------------------------------------------------
E-------------------------------------------------------------------------

e--------7----------7-----------------------------------------------------
B--7-10-------10--7------10--7-------10-----------------------------------
G-------------------------------9--7--------------------------------------
D-------------------------------------------------------------------------
A-------------------------------------------------------------------------
E-------------------------------------------------------------------------

e------7------------7--10--9-7----------7--6------------------------------
B--10-----10----10--------------10--10------------------------------------
G-------------------------------------------------------------------------
D-------------------------------------------------------------------------
A-------------------------------------------------------------------------
E-------------------------------------------------------------------------

e--6--7L-------------------------------------------------------------5--7--
B-----------5--6--5----------5--6--5----------5--6--5-----7-5-----7--------
G-----4--7----------7--4--7----------7--4--7-----------7-------7-----------
D--------------------------------------------------------------------------
A--------------------------------------------------------------------------
E--------------------------------------------------------------------------

______________________________________________________________________________________


e-------------------------------------------------5-----------------------
B--7--7--7-5--7--7-5------------7--7--7--5-7--5-7---7---------------------
G--------------------7--4--7----------------------------------------------
D-------------------------------------------------------------------------
A-------------------------------------------------------------------------
E-------------------------------------------------------------------------

e-------------------------------------------------------------------------
B--7--7--7--5-7--7-5----------5-----5-----5---5---5-7-5-------------------
G--------------------7--4--7-----7-----7----7---7-------7-----------------
D-------------------------------------------------------------------------
A-------------------------------------------------------------------------
E-------------------------------------------------------------------------

e-------------------------------------------------5-----------------------
B--7--7--7--5-7--7-5------------7-7-7-7--7-7--5-7---7---------------------
G--------------------7--4--7----------------------------------------------
D-------------------------------------------------------------------------
A-------------------------------------------------------------------------
E-------------------------------------------------------------------------

e-------------------------------------------------------------------------
B--7-7-7--7--5-7--7-5---------------------5---------5---------------------
G---------------------7--4--7--7-7--7-7-7----7--4-7-----------------------
D-------------------------------------------------------------------------
A-------------------------------------------------------------------------
E-------------------------------------------------------------------------

______________________________________________________________________________________


e--7-----------7----------------------------------------------------------
B-------10--7----10--7-----------7-8--10-10-------------------------------
G-----------------------9--7--9-------------------------------------------
D-------------------------------------------------------------------------
A-------------------------------------------------------------------------
E-------------------------------------------------------------------------

e----------7--------------------------------------------------------------
B--8g10---------10--7-----------------------7-----------------------------
G----------------------9----7--6--7----9----------------------------------
D-------------------------------------------------------------------------
A-------------------------------------------------------------------------
E-------------------------------------------------------------------------

e-----7--7-----------7----------------------------------------------------
B--10---------10--7----10--7-----------7-8--10-10-------------------------
G-----------------------------9--7--9-------------------------------------
D-------------------------------------------------------------------------
A-------------------------------------------------------------------------
E-------------------------------------------------------------------------

e------7--------7---------------------------------------------------------
B--10-----10---------10--7------------------7-8-10------------------------
G--------------------------9--7--9-9-9-9--9-------------------------------
D-------------------------------------------------------------------------
A-------------------------------------------------------------------------
E-------------------------------------------------------------------------

______________________________________________________________________________________


e-------7---------7-----------7-------------------------------------------
B--7---------7--7-------7--7-------10----7--------------------------------
G-------------------------------------------------------------------------
D-------------------------------------------------------------------------
A-------------------------------------------------------------------------
E-------------------------------------------------------------------------

e-------------------------------------------------------------------------
B-----7----------7--10--7-7-----------------7-7---------------------------
G--9-----9----9-------------9--7--7-9--7-9--------------------------------
D-------------------------------------------------------------------------
A-------------------------------------------------------------------------
E-------------------------------------------------------------------------

e--------7----------7-----------------------------------------------------
B--7-10-------10--7------10--7-------10-----------------------------------
G-------------------------------9--7--------------------------------------
D-------------------------------------------------------------------------
A-------------------------------------------------------------------------
E-------------------------------------------------------------------------

e------7------------7--10--9-7----------7--6----6--7----------------------
B--10-----10----10--------------10--10------------------------------------
G-------------------------------------------------------------------------
D-------------------------------------------------------------------------
A-------------------------------------------------------------------------
E-------------------------------------------------------------------------

______________________________________________________________________________________


e-------------------------------------------------------------------------
B--7--------10--------7---------------------------------------------------
G-------------------------------------------------------------------------
D-------------------------------------------------------------------------
A-------------------------------------------------------------------------
E-------------------------------------------------------------------------

e-------------------------------------------------------------------------
B------------------------8----7-7-----------------------------------------
G--7-7-7--6--7--6--7--9---------------------------------------------------
D-------------------------------------------------------------------------
A-------------------------------------------------------------------------
E-------------------------------------------------------------------------

e-------------------------------------------------------------------------
B-------------------------------------------------------------------------
G--7-7-7--7--9--9-7-7-6--7--6--6-6-6-7-9----------------------------------
D----------------------------------------9--------------------------------
A-------------------------------------------------------------------------
E-------------------------------------------------------------------------

e---------------------------------9--7------------------------------------
B--8-8-8--8-8--8--7--8--10---10----------7--------------------------------
G-------------------------------------------------------------------------
D-------------------------------------------------------------------------
A-------------------------------------------------------------------------
E-------------------------------------------------------------------------

e-----------------------7--6-6-6-6--7--9----------------------------------
B--8-8-8--8--8-8-8-8-10---------------------------------------------------
G-------------------------------------------------------------------------
D-------------------------------------------------------------------------
A-------------------------------------------------------------------------
E-------------------------------------------------------------------------

______________________________________________________________________________________


e-------7---------7-----------7-------------------------------------------
B--7---------7--7-------7--7-------10----7--------------------------------
G-------------------------------------------------------------------------
D-------------------------------------------------------------------------
A-------------------------------------------------------------------------
E-------------------------------------------------------------------------

e-------------------------------------------------------------------------
B-----7----------7--10--7-7-----------------7-7---------------------------
G--9-----9----9-------------9--7--7-9--7-9--------------------------------
D-------------------------------------------------------------------------
A-------------------------------------------------------------------------
E-------------------------------------------------------------------------

e--------7----------7-----------------------------------------------------
B--7-10-------10--7------10--7-------10-----------------------------------
G-------------------------------9--7--------------------------------------
D-------------------------------------------------------------------------
A-------------------------------------------------------------------------
E-------------------------------------------------------------------------

e------7------------7--10--9-7----------7--6------------------------------
B--10-----10----10--------------10--10------------------------------------
G-------------------------------------------------------------------------
D-------------------------------------------------------------------------
A-------------------------------------------------------------------------
E-------------------------------------------------------------------------


e--6----8----6----8----6-----8--6-----------------------------------------
B---------------8---------8--------8--------------------------------------
G-------------------------------------------------------------------------
D-------------------------------------------------------------------------
A-------------------------------------------------------------------------
E-------------------------------------------------------------------------

e-------------------6-----------------------------------------------------
B--6--8--6----6--8-----8-8--6----6----6--8--8-----------------------------
G------------------------------8----8-------------------------------------
D-------------------------------------------------------------------------
A-------------------------------------------------------------------------
E-------------------------------------------------------------------------

e----6--8----6-----8----6----------6--------------------------------------
B--8------------8----------8--6-------------------------------------------
G--------------------------------8----------------------------------------
D-------------------------------------------------------------------------
A-------------------------------------------------------------------------
E-------------------------------------------------------------------------

e--6--8--6----6--8--11--10-8-6--6---8---7---------------------------------
B-------------------------------------------------------------------------
G-------------------------------------------------------------------------
D-------------------------------------------------------------------------
A-------------------------------------------------------------------------
E-------------------------------------------------------------------------

e--7--8L----------------------------------------------------------6--8----
B-----------6--7--6----------6--7--6----------6--7--6----8-6---8----------
G-----5--8----------8--5--8----------8--5--8----------8------8------------
D-------------------------------------------------------------------------
A-------------------------------------------------------------------------
E-------------------------------------------------------------------------


Login or Register to remove this ad.

1 comment on Inside Identity

Awesome Job!

5

I felt like this was done great; admitting, it took me a bit to get the rhythm right since I have not heard the song in a bit, but once I did, it sounded spot on. Whoever gave that low rating earlier must be a beginner or a hater.