Running Hell (Cave Story) Bass/Guitar Tab

Submitted: Feb 10, 2010 by Jacob31593 (Last updated: Apr 05, 2010)

5
Average: 5 (4 votes)
Download | Listen
Game: Cave Story
Composer(s): Daisuke Amaya
Style: 2 or more instruments, Alternate picking, Arrangement, Transcription

This song is also called Curly's Theme

AutoScroll: Slow | Medium | Fast

Running Hell from Cave Story
Composed by Daisuke Amaya
Tabbed by Jacob31593
Feb 10th 2010

I was surprised when I saw no one had tabbed this yet! Tabbed for two guitars and a bass, the second guitar is in Drop-C. Check out the midi!

Lead


E||-------|-------|-------|-------|-------|-------|-------|-------|
B||-------|-------|-------|-------|-------|-------|-------|-------|
G||-------|-------|-------|-------|-------|-------|-------|-------|
D||-------|-------|-------|-------|-------|-------|-------|-------|
A||-------|-------|-------|-------|-------|-------|-------|-------|
E||-------|-------|-------|-------|-------|-------|-------|-------|


    E  E  E  E  E  E  E  E     E  E  E  S  S E  E  E  E   
|---------------------------|----------------------------|
|---------------------------|----------------------------|
|*--------------------------|----------------------5-----|
|*-----------------------6--|--7--------6s-7----------5--|
|------8--5-----8--5--------|-----8--5-------8--5--------|
|---5--------5--------5-----|----------------------------|


  E  E  E  E  E  E  E  E     E  E  E  E  E  E  E  E   
--------------------------|--------------------------|
--------------------------|--------------------------|
--------------------------|-----5--------------------|
--7-----------------------|--------9--8--7--6--5-----|
--------------------4--5--|-----------------------9--|
-----8--6--8--6--8--------|--8-----------------------|


  E   E  E  E   E  E  E  E      E   E  E  S   S  E  E  E  E   
----------------------------|--------------------------8-----|
-------------------------9--|--10---------9s-10-----------8--|
-----10--7-----10--7--------|------10--7--------10--7--------|
------------7---------7-----|--------------------------------|
----------------------------|--------------------------------|
----------------------------|--------------------------------|


   E   E  E   E  E   E  E  E      E   Q    Q    Q     S   S  
------------------------------|----------------------11h-12-|
--10--------------------------|-----------------------------|
------------------------6--7--|------10----9----8-----------|
------10--8--10--8--10--------|--10-------------------------|
------------------------------|-----------------------------|
------------------------------|-----------------------------|


   E   E   E   E   E   E   E   E      E   E   E   E   E   E   E   E   
--13--10--13--18--17--------------|--15----------15----------15------|
----------------------18--15------|------17--13------13--17------17--|
------------------------------14--|----------------------------------|
----------------------------------|----------------------------------|
----------------------------------|----------------------------------|
----------------------------------|----------------------------------|


   Q.      Q.      Q        E   E   E   E   E   E   E   E   
--15------13------------|--13------13------13------13------|
------------------17----|------15------15------15------15--|
------------------------|----------------------------------|
------------------------|----------------------------------|
------------------------|----------------------------------|
------------------------|----------------------------------|


   E  E   E   E   E   E  E  E     E  E   E  E   E  E  E  E   
-------------------------------|----------------------------|
-------------11--10------------|--8---------8---------8-----|
--10--7--10----------10--7-----|-----9-------------9-----9--|
----------------------------7--|--------10-----10-----------|
-------------------------------|----------------------------|
-------------------------------|----------------------------|


  Q.      Q.     Q        E  E   E  E   E  E   E  E   
----------------------|------------------------------|
--8-------------------|------------------------------|
---------10------9----|--10--7--10--7--10--7--10--7--|
----------------------|------------------------------|
----------------------|------------------------------|
----------------------|------------------------------|


  E  E  E  E  E  E  E  E     E  E  E  S  S E  E  E  E   
--------------------------|----------------------------|
--------------------------|----------------------------|
--------------------------|----------------------5-----|
-----------------------6--|--7--------6s-7----------5--|
-----8--5-----8--5--------|-----8--5-------8--5--------|
--5--------5--------5-----|----------------------------|


  E  E  E  E  E  E  E  E     E  E  E  E  E  E  E  E   
--------------------------|--------------------------|
--------------------------|--------------------------|
--------------------------|-----5--------------------|
--7-----------------------|--------9--8--7--6--5-----|
--------------------4--5--|-----------------------9--|
-----8--6--8--6--8--------|--8-----------------------|


  E   E  E  E   E  E  E  E      E   E  E  S   S  E  E  E  E   
----------------------------|--------------------------8-----|
-------------------------9--|--10---------9s-10-----------8--|
-----10--7-----10--7--------|------10--7--------10--7--------|
------------7---------7-----|--------------------------------|
----------------------------|--------------------------------|
----------------------------|--------------------------------|


   E   E  E   E  E   E  E  E     E   E  E   E   E  E   E  E   
------------------------------|---------------------------8--|
--10--------------------------|--------------------8--10-----|
------------------------6--7--|--9--10--9------10------------|
------10--8--10--8--10--------|------------10----------------|
------------------------------|------------------------------|
------------------------------|------------------------------|


   W                   Q    E  E  Q     Q       Q.     E  Q    Q     
--10----------------|--8----7-----7----------|----------------------|
--------------------|----------8-------10----|--8--------------8----|
--------------------|------------------------|---------7--9---------|
--------------------|------------------------|----------------------|
--------------------|------------------------|----------------------|
--------------------|------------------------|----------------------|


   H        H            H.           E   E     H         H         
---------------------|-----------------------|-----------15--------|
--10--------8--------|-----------------------|--8------------------|
---------------------|--10------------9--10--|---------------------|
---------------------|-----------------------|---------------------|
---------------------|-----------------------|---------------------|
---------------------|-----------------------|---------------------|


   W                    H         H            Q     Q     Q     Q     
--------------------|--17--------15--------|--20----------17----20----|
--17----------------|----------------------|--------17----------------|
--------------------|----------------------|--------------------------|
--------------------|----------------------|--------------------------|
--------------------|----------------------|--------------------------|
--------------------|----------------------|--------------------------|


   H         Q     Q        E.   E.   E   Q     Q     
--22--------20----19----|--17---19---15--------------|
------------------------|----------------15----------|
------------------------|----------------------16----|
------------------------|----------------------------|
------------------------|----------------------------|
------------------------|----------------------------|


   H         H            E.   E.   E   E.   E.   E   
----------------------|------------------------------|
----------------------|------------------------------|
--17--------16--------|------------------------------|
----------------------|--14---15---17--14---12-------|
----------------------|--------------------------15--|
----------------------|------------------------------|


   E.   E.   E   E.   E.   E      H.            S  S  S  S  
------------------------------|----------------------------|
------------------------------|----------------------------|
------------------------------|-------------------------14-|
------------------------------|----------------------14----|
--14---15---12--15---14---10--|--12------------14-15-------|
------------------------------|----------------------------|


   S   S   S   S   S   S   S   S  S  S  S  S  S  S  S  S  5x
----------------------------------------------------------||
--17s-16s-15s-14s-13s-12s-11s-10s-9s-8s-7s-6s-5s-4s-3s-2--||
---------------------------------------------------------*||
---------------------------------------------------------*||
----------------------------------------------------------||
----------------------------------------------------------||




Duration Legend
---------------
W - whole
H - half
Q - quarter
E - 8th
S - 16th
. - note dotted
|-n-|  - n-tuplets


Tablature Legend
----------------
L - tied note

s - legato slide


Rhythm

     Q    E  E  E  E  E  E     Q    E  E  E  E  E  E   
D||-------------------------|-------------------------|
A||-------------------------|-------------------------|
F||-------------------------|-------------------------|
C||-------------------------|-------------------------|
G||--2-------2-----2-----2--|--2-------2-----2-----2--|
C||-------2-----2-----2-----|-------2-----2-----2-----|


  Q    E  E  E  E  E  E     Q    E  E  E  E  E  E   
-------------------------|-------------------------|
-------------------------|-------------------------|
-------------------------|-------------------------|
-------------------------|-------------------------|
--2-------2-----2-----2--|--2-------2-----2-----2--|
-------2-----2-----2-----|-------2-----2-----2-----|


  Q    E  E  E  E  E  E     Q    E  E  E  E  E  E   
-------------------------|-------------------------|
-------------------------|-------------------------|
-------------------------|-------------------------|
-------------------------|-------------------------|
--2-------2-----2-----2--|--2-------2-----2-----2--|
-------2-----2-----2-----|-------2-----2-----2-----|


  Q    E  E  E  E  E  E     E.  E.  E.  E.  Q                       
-------------------------|-----------------------||--------|-------|
-------------------------|-----------------------||--------|-------|
-------------------------|-----------------------||*-------|-------|
-------------------------|-----------------------||*-------|-------|
--2-------2-----2-----2--|-----------------------||--------|-------|
-------2-----2-----2-----|--2---2---2---2---2----||--------|-------|


                  E  E  E  E  E  E  E  E     E  E  E  E  E  E  E  E   
-------|-------|--------------------------|--------------------------|
-------|-------|--------------------------|--------------------------|
-------|-------|--------------------------|--7--7-----7-----7-----7--|
-------|-------|--9--9-----9-----9-----9--|--5--5-----5-----5-----5--|
-------|-------|--7--7-----7-----7-----7--|--------------------------|
-------|-------|--------------------------|--------------------------|


  E  E  E  E  E  E  E  E     Q    E  E  E  E  E  E   
--------------------------|-------------------------|
--------------------------|-------------------------|
--6--6-----6-----6-----6--|--9-------9-----9-----9--|
--4--4-----4-----4-----4--|--7-------7-----7-----7--|
--------------------------|-------------------------|
--------------------------|-------------------------|


  Q    E  E  E  E  E  E     Q    E  E  E  E  E  E   
-------------------------|-------------------------|
-------------------------|-------------------------|
-------------------------|-------------------------|
-------------------------|-------------------------|
--2-------2-----2-----2--|--2-------2-----2-----2--|
-------2-----2-----2-----|-------2-----2-----2-----|


  Q    E  E  E  E  E  E     Q    E  E  E  E  E  E   
-------------------------|-------------------------|
-------------------------|-------------------------|
-------------------------|-------------------------|
-------------------------|-------------------------|
--0-------0-----0-----0--|--2-------2-----2-----2--|
-------0-----0-----0-----|-------2-----2-----2-----|


  Q    E  E  E  E  E  E     Q    E  E  E  E  E  E   
-------------------------|-------------------------|
-------------------------|-------------------------|
-------------------------|-------------------------|
-------------------------|-------------------------|
--2-------2-----2-----2--|--2-------2-----2-----2--|
-------2-----2-----2-----|-------2-----2-----2-----|


  Q    E  E  E  E  E  E     Q    E  E  E  E  E  E                         
-------------------------|-------------------------|-----|-------|-------|
-------------------------|-------------------------|-----|-------|-------|
-------------------------|-------------------------|-----|-------|-------|
-------------------------|-------------------------|-----|-------|-------|
--0-------0-----0-----0--|--2-------2-----2-----2--|-----|-------|-------|
-------0-----0-----0-----|-------2-----2-----2-----|-----|-------|-------|


          E  E  E  E  E  E  E  E     E  E  E  E  E  E  E  E   
-------|--------------------------|--------------------------|
-------|--------------------------|--------------------------|
-------|--------------------------|--7--7-----7-----7-----7--|
-------|--9--9-----9-----9-----9--|--5--5-----5-----5-----5--|
-------|--7--7-----7-----7-----7--|--------------------------|
-------|--------------------------|--------------------------|


  E  E  E  E  E  E  E  E     Q    E  E  E  E  E  E   
--------------------------|-------------------------|
--------------------------|-------------------------|
--6--6-----6-----6-----6--|--9-------9-----9-----9--|
--4--4-----4-----4-----4--|--7-------7-----7-----7--|
--------------------------|-------------------------|
--------------------------|-------------------------|


   E  E  E   E  E  E   E  E      E  E  E   E  E  E   E  E   
-----------------------------|-----------------------------|
-----------------------------|-----------------------------|
-----------------------------|-----------------------------|
--12-----9--12-----9--12--9--|--11-----7--11-----7--11--7--|
------9---------9------------|------7---------7------------|
-----------------------------|-----------------------------|


  E  E  E  E  E  E  E  E      E  E  E   E  E  E   E  E   
--------------------------|-----------------------------|
--------------------------|-----------------------------|
--9--------9--------9-----|-----------------------------|
--------7--------7-----7--|--12-----9--12-----9--12--9--|
-----9--------9-----------|------9---------9------------|
--------------------------|-----------------------------|


   E   E  E   E  E  E   E  E      E  E  E   E  E  E   E  E   
------------------------------|-----------------------------|
------------------------------|-----------------------------|
------------------------------|-----------------------------|
--12------9--12-----9--12--9--|--11-----7--11-----7--11--7--|
------10---------9------------|------7---------7------------|
------------------------------|-----------------------------|


  E  E  E  E  E  E  E  E      E  E  E   E  E  E   E  E   
--------------------------|-----------------------------|
--------------------------|-----------------------------|
--9--------9--------9-----|-----------------------------|
--------7--------7-----7--|--12-----9--12-----9--12--9--|
-----9--------9-----------|------9---------9------------|
--------------------------|-----------------------------|


   E  E  E   E  E  E   E  E      E  E  E   E  E  E   E  E   
-----------------------------|-----------------------------|
-----------------------------|-----------------------------|
-----------------------------|-----------------------------|
--12-----9--12-----9--12--9--|--11-----7--11-----7--11--7--|
------9---------9------------|------7---------7------------|
-----------------------------|-----------------------------|


  E  E  E  E  E  E  E  E      E  E  E   E  E  E   E  E   
--------------------------|-----------------------------|
--------------------------|-----------------------------|
--9--------9--------9-----|-----------------------------|
--------7--------7-----7--|--12-----9--12-----9--12--9--|
-----9--------9-----------|------9---------9------------|
--------------------------|-----------------------------|


   E  E  E   E  E  E   E  E      E  E  E   E  E  E   E  E   
-----------------------------|-----------------------------|
-----------------------------|-----------------------------|
-----------------------------|-----------------------------|
--12-----9--12-----9--12--9--|--11-----7--11-----7--11--7--|
------9---------9------------|------7---------7------------|
-----------------------------|-----------------------------|


  E  E  E  E  E  E  E  E     E  E  E  E  E  E  E  E   5x
--------------------------|---------------------------||
--------------------------|---------------------------||
--------------------------|--------------------------*||
--9--------9--------9-----|--9--0-----9--0-----9--0--*||
-----7--9-----7--9-----9--|--------9--------9---------||
--------------------------|---------------------------||




Duration Legend
---------------
W - whole
H - half
Q - quarter
E - 8th


Tablature Legend
----------------
L - tied note


Bass(!!!)

     Q    Q    Q    Q       Q    Q    Q    Q       Q    Q    Q    Q     
G||----------------------|----------------------|----------------------|
D||----------------------|----------------------|----------------------|
A||--5----5----5----5----|--5----5----5----5----|--5----5----5----5----|
E||----------------------|----------------------|----------------------|


  Q    Q    Q    Q       Q    Q    Q    Q       Q    Q    Q    Q     
----------------------|----------------------|----------------------|
----------------------|----------------------|----------------------|
--5----5----5----5----|--5----5----5----5----|--5----5----5----5----|
----------------------|----------------------|----------------------|


  Q    Q    Q    Q       E.  E.  E.  E.  Q     
----------------------|-----------------------|
----------------------|-----------------------|
--5----5----5----5----|--5---5---5---5---5----|
----------------------|-----------------------|


    E  E  E  E  E  E  E  E     E  E  E  E  E  E  E  E   
|---------------------------|--------------------------|
|*-----7-----------7-----6--|-----7-----7-----5-----5--|
|*--5-----5--0--5-----5-----|--5-----5-----5-----5-----|
|---------------------------|--------------------------|


  E  E  E  E  E  E  E  E     E  E  E  E  E  E  E  E   
--------------------------|--5-----------------------|
-----5-----5-----5-----5--|-----5-----5-----2-----5--|
--3-----3-----3-----3-----|--------3-----3-----3-----|
--------------------------|--------------------------|


  E  E  E  E  E  E  E  E     E  E  E  E  E  E  E  E   
--------------------------|--------------------------|
-----7-----7-----7-----7--|-----7-----7-----7-----7--|
--5-----5-----5-----5-----|--5-----5-----5-----5-----|
--------------------------|--------------------------|


  E  E  E  E  E  E  E  E     E  E  E  E  E  E  E  E   
--------------------------|--------------------------|
-----5-----5-----5-----5--|-----5-----5-----5-----5--|
--3-----3-----3-----3-----|--3-----3-----7-----3-----|
--------------------------|--------------------------|


  E  E  E  E  E  E  E  E     E  E  E  E  E  E  E  E   
--------------------------|--------------------------|
-----7-----7-----7-----7--|-----7-----7-----7-----7--|
--5-----5-----5-----5-----|--5-----5-----5-----5-----|
--------------------------|--------------------------|


  E  E  E  E  E  E  E  E     E  E  E  E  E  E  E  E   
--------------------------|--------------------------|
-----5-----5-----5-----5--|-----7-----7-----7-----7--|
--3-----3-----3-----3-----|--5-----5-----5-----5-----|
--------------------------|--------------------------|


  E  E  E  E  E  E  E  E     E  E  E  E  E  E  E  E   
--------------------------|--------------------------|
-----7-----7-----7-----7--|-----7-----7-----7-----7--|
--5-----5-----5-----5-----|--5-----5-----5-----5-----|
--------------------------|--------------------------|


  E  E  E  E  E  E  E  E     E  E  E  E  E  E  E  E   
--------------------------|--------------------------|
-----5-----5-----5-----5--|-----7-----7-----7-----7--|
--3-----3-----3-----3-----|--5-----5-----5-----5-----|
--------------------------|--------------------------|


  E  E  E  E  E  E  E  E     E  E  E  E  E  E  E  E   
--------------------------|--------------------------|
-----7-----7-----7-----7--|-----7-----7-----7-----7--|
--5-----5-----5-----5-----|--5-----5-----5-----5-----|
--------------------------|--------------------------|


  E  E  E  E  E  E  E  E     E  E  E  E  E  E  E  E   
--------------------------|--------------------------|
-----5-----5-----5-----5--|-----5-----5-----2-----5--|
--3-----3-----3-----3-----|--3-----3-----3-----3-----|
--------------------------|--------------------------|


  E  E  E  E  E  E  E  E     E  E  E  E  E  E  E  E   
--------------------------|--------------------------|
-----7-----7-----7-----7--|-----7-----7-----7-----7--|
--5-----5-----5-----5-----|--5-----5-----5-----5-----|
--------------------------|--------------------------|


  E  E  E  E  E  E  E  E     E  E  E  E  E  E  E  E   
--------------------------|--------------------------|
-----5-----5-----5-----5--|-----5-----5-----5-----5--|
--3-----3-----3-----3-----|--3-----3-----3-----3-----|
--------------------------|--------------------------|


  Q    Q    Q    Q       Q    Q    Q    Q       Q    Q    Q    Q     
----------------------|----------------------|----------------------|
--3----3----3----3----|--5----5----5----5----|--2----2----2----2----|
----------------------|----------------------|----------------------|
----------------------|----------------------|----------------------|


  Q    Q    Q    Q       Q    Q    Q    Q       Q    Q    Q    Q     
--2----2--------------|----------------------|----------------------|
------------5----5----|--3----3----3----3----|--5----5----5----5----|
----------------------|----------------------|----------------------|
----------------------|----------------------|----------------------|


  Q    Q    Q    Q       Q    Q    Q    Q       Q    Q    Q    Q     
----------------------|--2----2----9----7----|----------------------|
--2----2----2----2----|----------------------|--3----3----3----3----|
----------------------|----------------------|----------------------|
----------------------|----------------------|----------------------|


  Q    Q    Q    Q       Q    Q    Q    Q       Q    Q    Q    Q     
----------------------|----------------------|--2----2--------------|
--5----5----5----5----|--2----2----2----2----|------------5----5----|
----------------------|----------------------|----------------------|
----------------------|----------------------|----------------------|


  Q    Q    Q    Q       Q    Q    Q    Q       Q    Q    Q    Q     
----------------------|----------------------|----------------------|
--3----3----3----3----|--5----5----5----5----|--2----2----2----2----|
----------------------|----------------------|----------------------|
----------------------|----------------------|----------------------|


  Q    Q    Q    Q     5x
--2----2----9----7-----||
----------------------*||
----------------------*||
-----------------------||




Duration Legend
---------------
W - whole
H - half
Q - quarter
E - 8th
Login or Register to remove this ad.

2 comments on Running Hell

100% legit

5

100% legit

Huzzah!

5

Huzzah!