Ads

On to Grasstown (Cave Story) Guitar Tab

Submitted: Feb 26, 2013 by JordanVS

5
Average: 5 (7 votes)
Download | Listen
Game: Cave Story
Composer(s): Daisuke Amaya
Style: Arrangement, Fingerstyle

AutoScroll: Slow | Medium | Fast
On to Grasstown                                       
Cave Story
Daisuke "Pixel" Amaya
JordanVS


*Capo on 5th fret 



     E  E  E  E  E  E  E  E     E.  S E  E  E  E  E  E     Q    E  S  S Q    E  S  S  
E||--------------0-----------|--------------------------|----------------------------|
B||--3--------3-----3--------|--3---1----0-----0-----0--|--1-------1p-0---------1p-0-|
G||-----0-----------------0--|--------------------2-----|---------------2------------|
D||--------0-----------0-----|--------0-----------0-----|----------------------------|
A||--------------------------|--------------------------|-------3------------3-------|
E||--3-----------3-----------|--3-----------3-----------|--1------------1------------|


  Q    E  S  S Q    Q       E  E  E  E  E  E  E  E     E.  S E  E  E  E  E  E   
-------------------------|--------------0-----------|--------------------------|
----------1p-0-----------|--3--------3-----3--------|--3---1----0-----0-----0--|
--2------------2---------|-----0-----------------0--|--------------------2-----|
-------------------------|--------0-----------0-----|--------0-----------0-----|
-------3------------3----|--------------------------|--------------------------|
--1------------1---------|--3-----------3-----------|--3-----------3-----------|


  Q    E  S  S Q    E  S  S    Q    E  S  S Q    E  E     E  E  E  E  E  E  E  E   
---------------5------------|--5------------5----------|--------------------------|
----------------------------|--------------------------|--------------------------|
--5-------4h-5---------4h-5-|----------4h-5------------|-----------0--------0--2--|
---------------3------------|--3------------3----------|-----2--4--------4--------|
-------3------------3-------|-------3------------------|--0-----3-----0-----3-----|
--1-------------------------|--------------------1--3--|--------------------------|


  E  E  E  E  E  E  Q       E  E  E  E  E  E  E  E     E  E  E  E  E  S S Q     
-------------------------|-----------------------0--|--L-----------------------|
-----------0-------------|-----0--1--3-----0--3-----|-----0-----------0--------|
--L--0--2----------------|--------------------------|-----------2-------2-0----|
-------------------------|--------0-----------0-----|--------0------------0----|
--0-----3-----0-----3----|--2-----------2-----------|--2-----------2-----------|
-------------------------|--------------------------|--------------------------|


  E  E  E  E  E  E  E  E     E  E  E  E  E  E  E  E     E  E  E  E  E  E  E  E   
--------------------------|--------------------------|--------------------------|
--------------------------|-----------0--------------|--0-----1--0--------1--0--|
-----------0--------0--2--|--L--0--2-----------------|--------------------------|
-----2--4--------4--------|-----------------------2--|--------0-----------0-----|
--0-----3-----0-----3-----|--0-----3-----0-----3-----|--2-----------2-----------|
--------------------------|--------------------------|--------------------------|


  E  E  E  E  E  E  E  E       E  E  E  E  E  E  E  E     E.  S E  E  E  E  E  E   
--------------------------||---------------0-----------|--------------------------|
--L-----1--0--------------||---3--------3-----3--------|--3---1----0-----0-----0--|
--------------------------||*-----0-----------------0--|--0-----------------2-----|
--------0-----------------||*--------------------------|--------------------------|
--2-----------2--0--2--0--||---------------------------|--------------------------|
--------------------------||---3-----3-----3-----3-----|--3-----3-----3-----3-----|


  Q    E  S  S Q    E  S  S    Q    E  S  S Q    Q       E  E  E  E  E  E  E  E   
----------------------------|-------------------------|--------------0-----------|
--1-------1p-0---------1p-0-|----------1p-0-----------|--3--------3-----3--------|
---------------2------------|--2------------2---------|-----0-----------------0--|
--3-------------------------|-------------------------|--------------------------|
----------------------------|-------------------------|--------------------------|
--1----1-------1----1-------|--1----1-------1----1----|--3-----3-----3-----3-----|


  E.  S E  E  E  E  E  E     Q    E  S  S Q    E  S  S    Q    E  S  S Q    Q     
--------------------------|---------------5------------|--5------------5---------|
--3---1----0-----0-----0--|----------------------------|-------------------------|
--0-----------------2-----|--5-------4h-5---------4h-5-|----------4h-5-----------|
--------------------------|--3----3-------3----3-------|--3----3-------3----3----|
--------------------------|----------------------------|-------------------------|
--3-----3-----3-----3-----|----------------------------|-------------------------|


  E  E  E  E  E  E  E  E     E  E  E  E  E  E  Q       E  E  E  E  E  E  E  E   
--------------------------|-------------------------|-----------------------0--|
--------------------------|-----------0-------------|-----0--1--3-----0--3-----|
-----------0--------0--2--|--L--0--2----------------|--------------------------|
-----2--4--------4--------|-------------------------|--0-----0-----0-----0-----|
--3-----3-----3-----3-----|--3-----3-----3-----3----|--------------------------|
--------------------------|-------------------------|--------------------------|


   E  E  E  E  E  S S Q       E  E  E  E  E  E  E  E     E  E  E  E  E  E  E  E   
---L-----------------------|--------------------------|--------------------------|
------0-----------0--------|--------------------------|-----------0--------------|
------------2-------2-0----|-----------0--------0--2--|--L--0--2-----------------|
---0-----0-----0-----------|-----2--4--------4--------|-----------------------2--|
----------------------2----|--3-----3-----3-----3-----|--3-----3-----3-----3-----|
---------------------------|--------------------------|--------------------------|


  E  E  E  E  E  E  E  E     E  E  E  Q    E  Q       E  E  E  E  E  E  E  E   
--------------------------|------------------------|--------------0-----------|
--0-----1--0--------1--0--|--L-----1--0------------|--3--------3-----3--------|
--------------------------|------------------------|-----0-----------------0--|
--0-----0-----0-----0-----|------------------------|--------------------------|
--------------------------|-------------------0----|--2-----------3-----------|
--------------------------|--3-----3--2----3-------|--------------------------|


  E.  E.  E  E  E  E  E     Q    E  S  S Q    E  S  S    Q    E  S  S Q    Q     
-------------------------|----------------------------|-------------------------|
--3---1---0-----0-----0--|--1-------1p-0---------1p-0-|----------1p-0-----------|
-------------0-----2-----|---------------2------------|--2------------2---------|
--0----------------------|--3-------------------------|-------------------------|
-------------------------|---------------3------------|--0----------------------|
-------------------------|----------------------------|---------------1---------|


  E  E  E  E  E  E  E  E     E.  E.  E  E  E  E  E     Q    E  S  S Q    E  S  S  
--------------0-----------|-------------------------|---------------5------------|
--3--------3-----3--------|--3---1---0-----0-----0--|----------------------------|
-----0-----------------0--|-------------------2-----|--5-------4h-5---------4h-5-|
--------------------------|-------------------------|---------------3------------|
--------------0-----------|--2----------3-----------|--0-------------------------|
--3-----------------------|-------------------------|----------------------------|


  Q    E  S  S Q    Q       E  E  E  E  E  E  E  E     E  E  E  E  E  E  Q     
--5------------5---------|--------------------------|-------------------------|
-------------------------|--------------------------|-----------0-------------|
----------4h-5-----------|-----------0--------0--2--|--L--0--2----------------|
--3----------------------|-----2--4--------4--------|-------------------------|
---------------3---------|--------------------------|-------------------------|
-------------------------|--3-----3-----3-----3-----|--2-----2-----2-----2----|


  E  E  E  E  E  E  E  E      E  E  E  E  E  S S Q       E  E  E  E  E  E  E  E   
-----------------------0--|---L-----------------------|--------------------------|
-----0--1--3-----0--3-----|------0-----------0--------|--------------------------|
--------------------------|------------2-------2-0----|-----------0--------0--2--|
--------------------------|---------------------------|-----2--4--------4--------|
--------------------------|---------------------------|--------------------------|
--1-----1-----1-----1-----|---0-----0-----0------0----|--3-----3-----3-----3-----|


  E  E  E  E  E  E  E  E     E  E  E  E  E  E  E  E      E  E  E  E  E  E  Q     
--------------------------|-----------------------3--|---L--3-----2-----3--5----|
-----------0--------------|--0-----1--0--------1-----|--------------------------|
--L--0--2-----------------|--------------------------|---------------------2----|
-----------------------2--|--------------------------|---2-----2-----2-----2----|
--------------------------|--------------------------|--------------------------|
--2-----2-----2-----2-----|--1-----1-----1-----1-----|--------------------------|


  E  E  E  E  E  E  E  E     E  E  E  E  E  E  E  E     E  E  E  E  E  E  E  E   
--------------------------|--------------------------|--------------------------|
--------------0-----------|--------------0-----------|--------------------------|
--0--------0-----2--0-----|-----------0-----2--0-----|-----------0--2--0--------|
-----0--4--------------4--|--4--0--4--------------4--|--3-----2-----------3--2--|
--------------------------|--------------------------|-----3--------------------|
--3-----------3-----------|--2-----------2-----------|--1-----------1-----------|


  E  E  E  E  E  E  E  E     E  E  E  E  E  E  E  E     E  E  E  E  E  E  E  E   
--------------------------|--------------------------|--------------------------|
--------------------------|--------------0-----------|--------------0-----------|
--------------0-----0--2--|--0--------0-----2--0-----|-----------0-----2--0-----|
--2-----2--4-----4--------|-----0--4--------------4--|--4--0--4--------------4--|
-----3--------------------|--------------------------|--------------------------|
--0-----------0-----------|--3-----------3-----------|--2-----------2-----------|


  E  E  E  E  E  E  E  E     E  E  E  E  E  E  E  E     Q    E  E  Q    Q     
--------------------------|--------------------------|-----------------------|
--------------------------|--------------------------|--0--------------------|
-----------0--2--0--------|--------------0-----0--2--|--0-------2-------0----|
--3-----2-----------3--2--|--2-----2--4-----4--------|-----------------------|
-----3--------------------|-----3--------------------|-----------------------|
--1-----------1-----------|--0-----------0-----------|--3----3-----3----3----|


  Q    E  E  Q    Q       Q    E  E  Q    Q       Q    E  E  Q    Q     
----------0------------|-----------------------|-----------------------|
--3---------------0----|-----------------------|--0--------------------|
-----------------------|--0-------2-------0----|----------2------------|
--0--------------------|-----------------------|-----------------------|
-----------------------|--3--------------------|-----------------------|
--2----2-----2----2----|--1----1-----1----1----|--0----0-----0----0----|


  Q    E  E  Q    Q       Q    E  E  Q    Q       Q    E  E  E  E  Q     
-----------------------|----------0------------|------------------------|
--0--------------------|--3--------------------|------------------------|
--0-------2-------0----|------------------0----|--2-------0--------0----|
-----------------------|--0--------------------|------------------------|
-----------------------|-----------------------|--3---------------------|
--3----3-----3----3----|--2----2-----2----2----|--1----1-----1-----1----|


  Q    Q    Q    Q         W                  
-----------------------||-------------------||
-----------------------||-------------------||
--0----0----0----0----*||--0----------------||
----------------------*||--0----------------||
-----------------------||-------------------||
--0----0----0----0-----||--3----------------||




Duration Legend
---------------
W - whole
H - half
Q - quarter
E - 8th
S - 16th
. - note dotted


Tablature Legend
----------------
L - tied note
h - hammer on
p - pull off
^ - brush up
v - brush down
Login or Register to remove this ad.

2 comments on On to Grasstown

no comments?!?!?! this is fun

no comments?!?!?!
this is fun to play. play it guyz

i'll second that one!!

i'll second that one!!