Ads

Mimiga Town (Cave Story) Guitar Tab

Submitted: Jun 02, 2012 by GuitarGuy (Last updated: Aug 10, 2012)

5
Average: 5 (1 vote)
Download | Listen
Game: Cave Story
Composer(s): Daisuke Amaya
Style: Arrangement, Fingerstyle

AutoScroll: Slow | Medium | Fast
Mimiga Town
Arranged by: Romyl Lopez a.k.a GuitarGuy
Capo: 0
B E C G B E Tuning

I know it's a weird tuning, but I hope you guys like it!
     
     E  E  E  E  E  E  E  E     E  E  E  E  E  E  E  E     E  E  E  E  E  E  E  E
E||--------------------------|--------------------------|--------------------------|
B||--------------------------|--------------------------|--------------6-----------|
G|*--------------------------|--5--------5--L-----5-----|--7-----5-----------5-----|
C|*--5-----9-----7--5-----5--|--------9-----------------|--------------------------|
E||--------------------------|--------------------------|--------------------------|
B||--6--6--6--6--6--6--6--6--|--5--5--5--5--5--5--5--5--|--4--4--4--4--4--4--4--4--|


     E  E  E  E  E  E  E  E     E  E  E  E  E  E  E  E     E  E  E  E  E  E  E  E 
  |--------------------------|--------------------------|--------------------------|
  |--------------------------|--1-----------2-----------|--------------------------|
  |--3-----------------3-----|--------3-----------3-----|--------------------------|
  |--------------------------|--------------------------|--9-----------------9-----|
  |--------------------------|--------------------------|--------------------------|
  |--3--3--3--3--3--3--3--3--|--2--2--2--2--2--2--2--2--|--6--6--6--6--6--6--6--6--|


     E  E  E  E  E  E  E  E     E  E  E  E  E  E  E  E     E  E  E  E  E  E  E  E
  |--------------------------|--------------------------|--------------------------|
  |--------------------------|--------------------------|--------------------------|
  |--------------------------|--------------------------|--------------------------|
  |--9-----7-----7-----5-----|--5-----------4-----------|--5-----9-----7--5-----5--|
  |--------------------------|--------------------------|--------------------------|
  |--0--0--0--0--0--0--0--0--|--1--1--1--1--1--1--1--1--|--6--6--6--6--6--6--6--6--|
    

     E  E  E  E  E  E  E  E     E  E  E  E  E  E  E  E     E  E  E  E  E  E  E  E 
  |--------------------------|--------------------------|--------------------------|
  |--------------------------|--------------6-----------|--------------------------|
  |--5--------5--L-----5-----|--7-----5-----------5-----|--3-----------------3-----|
  |--------9-----------------|--------------------------|--------------------------|
  |--------------------------|--------------------------|--------------------------|
  |--5--5--5--5--5--5--5--5--|--4--4--4--4--4--4--4--4--|--3--3--3--3--3--3--3--3--|

  
     E  E  E  E  E  E  E  E     E  E  E  E  E  E  E  E     E  E  E  E  E  E  E  E
  |--------------------------|--1-----------L-----------|--------------------------|
  |--1-----------2-----------|--------------------1-----|--------------------------|
  |--------3-----------3-----|--------------------------|--3-----2-----------0-----|
  |--------------------------|--------------------------|--------------5-----------|
  |--------------------------|--------------------------|--------------------------|
  |--2--2--2--2--2--2--2--2--|--1--1--1--1--1--1--1--1--|--5--5--5--5--5--5--5--5--|


     E  E  E  E  E  E  E  E     E  E  E  E  E  E  E  E     E  E  E  E  E  E  E  E  
  |--------------------------|--5-----5--------8-----8--|--L-----------------6--5--|
  |--------------------6--8--|-----------6--L-----------|--------------------------|
  |--0-----------------------|--------------------------|--------------------------|
  |-----5--------L-----------|--------------------------|--------------------------|
  |--------------------------|--------------------------|--------------------------|
  |--6--6--6--6--6--6--6--6--|--6--6--6--6--6--6--6--6--|--5--5--5--5--5--5--5--5--|


     E  E  E  E  E  E  E  E     E  E  E  E  E  E  E  E     E  E  E  E  E  E  E  E
  |--6-----------------------|-----------------6--8--6--|--13-------11-L--------9--|
  |-----------3--L--5-----6--|--L-----------------------|--------------------------|
  |--------------------------|--------------------------|--------------------------|
  |--------------------------|--------------------------|--------------------------|
  |--------------------------|--6--6--6--6--6--6--6--6--|--9--9--9--9--9--9--9--9--|
  |--4--4--4--4--4--4--4--4--|--------------------------|--------------------------|


     E  E  E  E  E  E  E  E     E  E  E  E  E  E  E  E     E  E  E  E  E  E  E  E 
  |--8-----------6-----------|--8-----------------------|--8-----------------------|
  |--------------------------|-----------------6--8--6--|-----------------6--8--6--|
  |--------------------------|--------------------------|--------------------------|
  |--------------------------|--------------------------|--------------------------|
  |--------------------------|--------------------------|--------------------------|
  |--4--4--4--4--4--4--4--4--|--6--6--6--6--6--6--6--6--|--5--5--5--5--5--5--5--5--|


     E  E  E  E  E  E  E  E     E  E  E  E  E  E  E  E     E  E  E  E  E  E  E  E
  |--13----------11-L--------|--6--5--------------8-----|--3--------1--L-----4-----|
  |--------------------13----|--------6--------6--------|--------------------------|
  |--------------------------|-----------7--L-----------|--------------------------|
  |--------------------------|--------------------------|--------------------------|
  |--11-11-11-11-11-11-11-11-|--6--6--6--6--6--6--6--6--|--------------------------|
  |--------------------------|--------------------------|--2--2--2--2--2--2--2--2--|


     E  E  E  E  E  E  E  E     E  E  E  E  E  E  E  E     Q     Q     Q     E  E
  |--3-----------------3-----|--1-----------------------|--------------------------||
  |-----------6--L-----------|-----1-----1-----1-----1--|--------------------------||
  |--------------------------|--------3-----2-----3-----|--------------------------*|
  |--------------------------|--------------------------|--3-----0-----7-----3--4--*|
  |--------------------------|--1--1--1--1--1--1--1--1--|--6-----5-----6-----------||
  |--4--4--4--4--4--4--4--4--|--------------------------|--------------------1-----||








Duration Legend
---------------
W - whole
H - half
Q - quarter
E - 8th
S - 16th
T - 32nd
X - 64th
. - note dotted
|-n-|  - n-tuplets


Tablature Legend
----------------
L - tied note
x - dead note
g - grace note
(n) - ghost note
> - accentuded note
NH - natural harmonic
AH - artificial harmonic
TH - tapped harmonic
SH - semi harmonic
PH - pitch harmonic
h - hammer on
p - pull off
b - bend
br - bendRelease
pb - preBend
pbr - preBendRelease
brb - bendReleaseBend
\n/ - tremolo bar dip
\n - tremolo bar dive
-/n - tremolo bar Release up
/n\ - tremolo bar inverted dip
/n - tremolo bar return
-\n - tremolo bar Release down
S - shift slide
s - legato slide
/ -  slide into from below or out of upwards
\ -  slide into from above or out of downwards
~ - vibrato
W - wide vibrato
tr - trill
TP - tremolo picking
T - tapping
S - slap
P - pop
< - fade in
^ - brush up
v - brush down
Login or Register to remove this ad.

2 comments on Mimiga Town

This sounds really nice, I'm

This sounds really nice, I'm just too lazy to switch tunings haha

It's very good and I feel

5

It's very good and I feel that this arrangement would fit a 7-string guitar really well :D