Last Battle (Cave Story) Guitar Tab

Submitted: Nov 23, 2014 by ltm_1988

5
Average: 5 (1 vote)
Download | Listen
Game: Cave Story
Composer(s): Daisuke Amaya
Style: Arrangement, Fingerstyle

AutoScroll: Slow | Medium | Fast
Last Battle
Cave Story
Daisuke Amaya
ltm_1988
11/23/2014

     E  Q     Q     E  E  E     E  Q     Q     E  E  E     E  Q     Q     E  E  E     E  Q     Q     Q.
E||--------------------------|--------------------------|--------------------------|--1--1--------------------|
B||--1--1--------------------|--3--3--------------------|--------------------------|--1--1--------------------|
G||*-0--0-----0--------------|--2--2-----0--------------|--8--8-----0--------------|-----------3-----0--------|
D||*----------------3--1--0--|--0--0-----------3-----0--|--8--8-----------3--1--0--|--3--3--------------------|
A||--3--3--------------------|--------------------6-----|--6--6--------------------|--------------------------|
E||--------------------------|--------------------------|--------------------------|--------------------------|

     E  Q     Q     E  E  E     E  Q     Q     E  E  E     E  Q     Q     E  E  E     E  Q     Q     Q.
E||--------------------------|--------------------------|--------------------------|--1--1--------------------|
B||--1--1--------------------|--3--3--------------------|--------------------------|--1--1--------------------|
G||--0--0-----0--------------|--2--2-----0--------------|--8--8-----0--------------|-----------3-----0--------|
D||-----------------3--1--0--|--0--0-----------3-----0--|--8--8-----------3--1--0--|--3--3--------------------|
A||--3--3--------------------|--------------------6-----|--6--6--------------------|--------------------------|
E||--------------------------|--------------------------|--------------------------|--------------------------|

     E  E  E  E  E  E  E  E     E  E  E  E  E  E  E  E     E  E  E  E  E  E  E  E     E  E  E  E  E  E  E  E
E||--------------------------|--------------------------|--------------------------|--------------------------|
B||-----1--1--1--------------|--------------------------|--------------------------|--------------------------|
G||--0-----------0-----------|--------------------------|--------------------0-----|--------------------------|
D||-----------------1--0-----|-----------0--1--0--1--0--|--1--------1--------------|--------------------------|
A||--3--3--3--3--3--3--3--3--|--2--3--3-----------------|--3--3--3--3--3--3--3--3--|--3-----3--3-----------0--|
E||--------------------------|-----------1--------------|--------------------------|-----3--------2--3--4-----|

     E  E  E  E  E  E  E  E     E  E  E  Q     E  E  E     E  E  E  E  E  E  E  E     E  E  E  E  E  E  E  E
E||--------------------------|--1-----------------------|--------------------------|--------------------------|
B||-----1--1--1--4--3--1--3--|-----4--3--4-----3--------|--------------------------|--------------------------|
G||--0-----------------------|--------------------3--1--|--------0--0--------------|--------------------------|
D||--------------------------|-----------------1-----0--|-----3--------------------|--3--------3--------0--1--|
A||--3--3--3--3--3--3--3--3--|--1--3--3-----------------|--3--3--3--3--3--1--1--3--|-----1--1--1--1--1--3-----|
E||--------------------------|-----------1--------------|--------------------------|-----3--4-----------------|

     E  E  E  E  E  E  E  E     E  E  E  E  E  E  E  E     E  E  E  E  E  E  E  E     E  E  E  E  E  E  E  E
E||--------------------------|--------------------------|--------------------------|--------------------------|
B||--------------------------|--------------------------|--------------------------|--------------------------|
G||-----3--3--3--------------|--1--0--0--1--0-----------|--3--------3--------------|--0-----------------------|
D||--3-----------3-----------|-----------1-----3--1--3--|--------------------------|-----3--1--0-----0--1--3--|
A||--1--1--1--1--1--3--1--3--|--1--1--1--------5-----3--|--1--1--1--1--1--1-----1--|--1--1--------3--3--1--3--|
E||--------------------------|--------------------------|--------------------4-----|--------4--3--------------|

     E  E  E  E  E  E  E  E     E  E  E  Q     E  E  E     E  E  E  E  E  E  E  E     E  E  E  E  E  E  E  E
E||-----------3-----3--------|--------------------------|--------------------------|-----1--1--1--------------|
B||--1-----1-----------1-----|-----------1--------3~----|--4--3--1--4--3--1--4--3--|--4-----------1-----3~----|
G||--------------------------|--3--3--------------------|--------------------------|--------------------------|
D||--------------------------|--1-----1--------1-----0--|--------------------------|--------------1--0-----0--|
A||--3--3--3--3--3--3--3--3--|-----3--------------------|--3--1--1--1--1--1--1--1--|--3--------1--------3-----|
E||--------------------------|-----------1--------------|--------------------------|-----3--4-----------------|

     E  E  E  Q     E  E  E     E  E  E  Q     E  E  E     E  E  E  Q     E  E  E     E  E  E  E  E  E  Q
E||--------------------------|-----------1--------------|--------------------------|-----------1--------------|
B||--4-----------------------|--4-----------------3-----|--4-----------------------|--4-----------------3-----|
G||--------------------------|--------------------------|--------------------------|--------------------------|
D||--------------------------|--------------------------|--------------------------|--------------------------|
A||--3--3--3--3-----3--3--3--|--2--2--2--2-----2--2--2--|--1--1--1--1-----1--1--1--|--0--0--0-----0--0--0-----|
E||--------------------------|--------------------------|--------------------------|--------------------------|

     E  E  E  Q     E  E  E     E  E  E  Q     E  E  E     E  E  E  Q     E  E  E     E  E  E  Q     E  E  E
E||--------------------------|--------------------------|--------------------------|--------------------------|
B||--1-----------------1--3--|--1--------------------1--|--------------------------|--------------------------|
G||--------------------------|-----------3--------3-----|--0-----------------------|--------------------------|
D||--------------------------|--------------------------|--------------------------|--------------------------|
A||--------------------------|--1--1--1--------1--1--1--|--3--3--3--3-----1--1--3--|--3--3--3--3-----1--1--3--|
E||--4--4--4--4-----4--4--4--|-----------3--------------|--------------------------|--------------------------|

     E  E  E  Q     E  E  E     E  E  E  Q     E  E  E     E  E  E  Q     E  E  E     E  E  E  E  E  E  Q
E||--------------------------|-----------1--------2-----|--3-----------------------|--3--------1--------------|
B||--4-----------------------|--4-----------------------|--------------------------|--------------------4-----|
G||--------------------------|--------------------------|--------------------------|--------------------------|
D||--------------------------|--------------------------|--------------------------|--------------------------|
A||--3--3--3--3-----3--3--3--|--2--2--2--2-----2-----2--|--1--1--1--1-----1--1--1--|--0--0--0-----0--0--0-----|
E||--------------------------|--------------------------|--------------------------|--------------------------|

     E  E  E  Q     E  E  E     E  E  E  Q     E  E  E
E||--------------------------|--------------------------|
B||--1-----------------1--3--|--4--------3--------3--4--|
G||--------------------------|--------------------------|
D||--------------------------|--------------------------|
A||--------------------------|--1--1--1--------1--1--1--|
E||--4--4--4--4-----4--4--4--|-----------3--------------|

     E  Q     Q     E  E  E     E  Q     Q     E  E  E     E  Q     Q     E  E  E     E  E  E  E  E  E  Q
E||--8~----------------------|--6-----------------------|--3~----------------------|--------1--1--------1-----|
B||--------------------------|--------------------------|--------------------------|--3-----------3~----------|
G||-----------0--------------|-----------0--------------|-----------0--------------|-----------3-----0--------|
D||-----------------------0--|--0--0-----------------0--|--1--1-----------3--1--0--|--3--3--------------------|
A||-----------------8--6-----|-----------------8--6-----|--------------------------|--------------------------|
E||--8--8--------------------|--------------------------|--------------------------|--------------------------|

     E  Q     Q     E  E  E     E  Q     Q     E  E  E     E  Q     Q     E  E  E     E  E  E  E  E  E  Q     x3 W
E||--8~----------------------|--6-----------------------|--3~----------------------|--------1--1--------1-----||-8-
B||--------------------------|--------------------------|--------------------------|--3-----------3~----------||-8-
G||-----------0--------------|-----------0--------------|-----------0--------------|-----------3-----0-------*||-8-
D||-----------------------0--|--0--0-----------------0--|--1--1-----------3--1--0--|--3--3-------------------*||-10
A||-----------------8--6-----|-----------------8--6-----|--------------------------|--------------------------||-10
E||--8--8--------------------|--------------------------|--------------------------|--------------------------||-8-

Login or Register to remove this ad.