Ads

Gestation (Cave Story) Guitar Tab

Submitted: Mar 06, 2013 by JordanVS

5
Average: 5 (2 votes)
Download | Listen
Game: Cave Story
Composer(s): Daisuke Amaya
Style: Arrangement, Fingerstyle

AutoScroll: Slow | Medium | Fast
Gestation                                         
Access
Cave Story 
Daisuke "Pixel" Amaya
JordanVS




      E  E  Q    E  E  Q     4x   E  E  Q    E  E  Q     3x  E  E  Q    E  E  E  E   
E||---------2----------0-----||--------------------------||-------------------------|
B||---3--3-------1--1--------||---------3----------1-----||--------3----------0--2--|
G||*------------------------*||*--3--3-------1--1-------*||--3--3-------1--1--------|
D||*------------------------*||*------------------------*||-------------------------|
A||--------------------------||--------------------------||-------------------------|
E||--------------------------||--------------------------||-------------------------|


                                                     >                            
  W                   E  S S E  S S E  S S E  S S    E  S S E  S S E  S S E  S S  
-------------------|--0--2-3-0--2-3-0--2-3-0--2-3-|--0--2-3-0--2-3-0--2-3-0--2-3-|
--3----------------|------------------------------|------------------------------|
-------------------|------------------------------|--0---------------------------|
-------------------|------------------------------|------------------------------|
-------------------|------------------------------|--3---------------------------|
-------------------|------------------------------|------------------------------|


  >                    >  >     >             >              
  E  S S E  S S E  S S E  E     E  S S E  S S E  S S E  S S  
--2--3-5-2--3-5-2--3-5-2--3--|--0--2-3-0--2-3-0--2-3-0--2-3-|
-----------------------------|--0---------------------------|
--------------------------0--|----------------0-------------|
--0--------------------4-----|------------------------------|
-----------------------------|--3---------------------------|
-----------------------------|------------------------------|


  >                              >                            
  E  S S E  S S E  S S E  S S    E  S S E  S S E  S S E  S S  
-----0-1----0-1----0-1----0-1-|-------3------3------3------3-|
--3------3------3------3------|--5--7---5--7---5--7---5--7---|
------------------------------|------------------------------|
--3---------------------------|------------------------------|
--1---------------------------|--3---------------------------|
------------------------------|------------------------------|


  >                              >                            
  E  S S E  S S E  S S E  S S    E  S S E  S S E  S S E  S S  
-------5------5------5------5-|-------6------6------6------6-|
--7--8---7--8---7--8---7--8---|--8--9---8--9---8--9---8--9---|
------------------------------|------------------------------|
------------------------------|------------------------------|
--5---------------------------|--6---------------------------|
------------------------------|------------------------------|


  >                              >     >     >     >        >     >     >            
  E  S S E  S S E  S S E  E      E  E  E  E  E  E  E  E     E  E  E  E  E  E  E  E   
-------5------5------5--------|--0-----------------------|--2-----------------------|
--7--8---7--8---7--8---7--8\--|--1-----1-----------1-----|--3-----------------------|
------------------------------|--2-----0-----2-----0-----|-----2--5-----2-----------|
--0---------------------------|-----2-----2-----2-----2--|--0--------0-----0--4--0--|
------------------------------|--0-----------------------|--------------------------|
------------------------------|--------------------------|--------------------------|


  >     >     >     >        >     >                    >     >     >     >      
  E  E  E  E  E  E  E  E     E  E  E  E  E  E  E  E     E  E  E  E  E  E  E  E   
--0-----------------------|--------------------------|--0-----------------------|
--------------------------|--3-----------------------|--1-----1-----------1-----|
--------0-----------0-----|--3-----------------------|--2-----0-----2-----0-----|
--4--4--------4-----------|--------3-----------------|-----2-----2-----2-----2--|
--3--------3-----3-----3--|-----5-----5-----5-----5--|--0-----------------------|
--------------------------|--6-----------6-----6-----|--------------------------|


  >     >     >              >     >     >     >        >     >                 
  E  E  E  E  E  E  E  E     E  E  E  E  E  E  E  E     E  E  E  E  E  E  Q     
--2-----------------------|--3-----------------------|--2-----------------2----|
--3-----------------------|--4-----------------------|--3-----------------3----|
-----2--5-----2-----------|--3-----5-----3-----5-----|-----2-----------2-------|
--0--------0-----0--4-----|-----5--------------------|--------4-----4----------|
-----------------------5--|--6--------6-----6-----6--|--5--------5-------------|
--------------------------|--------------------------|-------------------------|


  E  E  E  E  E  E  E  E      E  E  E  E  E  E  E  E     E  E  E  E   E  E   E  E   
-----------------------5--|--10-----------------------|-----7--8--7-------------7--|
--8-----------8--7--8--5--|---7-----------7--7--7--7--|--7--7--7--7--10--8--10--7--|
--5-----------5--5--5-----|---7-----------7--7--7--7--|--7------------7--7---7-----|
--5-----------------------|------------0--0--0--0--0--|----------------------------|
--7--7--7--7--7--7--7--7--|---9--9--9-----------------|--9--9--9--9---9--9---9--9--|
--------------------------|---------------------------|----------------------------|


   E   E   E   E  E  E  E  E     E  E  E  E  E  E  E  E      E  E  E  E  E  E  E  E   
------------------------------|-----------------------5--|--10-----------------------|
---8--------------8--7-----7--|--8-----------8--7--8--5--|---7-----------7--7--7--7--|
---9--------------7--7--9--7--|--5-----------5--5--5-----|---7-----------7--7--7--7--|
------------------------------|--5-----------------------|---------------------------|
--10--10--10--10--9--9--9--9--|--7--7--7--7--7--7--7--7--|---9--9--9--9--9--9--9--9--|
------------------------------|--------------------------|---------------------------|


                                                              ^                  
   E  E   E  E   E   E   E   E      Q     Q     Q     Q       W                  
--10-----10-----12--10------10--|--15----14----12----10----|--3----------------||
---7------7-------------12------|---------------------7----|--5----------------||
---7----------------------------|--12----------11-----7----|--4----------------||
--------------------------------|--14----------12----------|--5----------------||
---9--9---9--9---9---9---9---9--|--------------------------|--3----------------||
--------------------------------|--------------------------|-------------------||




Duration Legend
---------------
W - whole
H - half
Q - quarter
E - 8th
S - 16th
. - note dotted



Tablature Legend
----------------
L - tied note
> - accentuded note
^ - brush up
v - brush down
Login or Register to remove this ad.