Ads

Vampire Killer (Castlevania) Guitar Tab

Submitted: Oct 17, 2021 by Omnicide (Last updated: Oct 24, 2021)

5
Average: 5 (4 votes)
Download | Listen
Game: Castlevania
Composer(s): Kinuyo Yamashita
Style: Arrangement, Fingerstyle
Series: Castlevania

This song is also called Stage 1

AutoScroll: Slow | Medium | Fast
Vampire Killer   
Castlevania                               
Composed by Satoe Terashima
Arranged by William Geesdorf


Standard Tuning
(If you want, tune your guitar one step down for original key)


     E  Q    Q    Q.        Q.     Q    E  E  E     Q.     Q.     Q     
E||--0--0----------------|-----------------------|---------------------|
B||--0--0----3----2------|-----------------------|--0-------------0----|
G||----------2----2------|-----------------0--2--|---------------------|
D||----------------------|---------2----4--------|---------2-----------|
A||----------------------|-----------------------|--3------------------|
E||--0-------------------|--0--------------------|---------------------|


  E  H.           E     E  Q    Q    Q.        Q.     Q    E  E  E   
---------------------|--0--0----------------|-----------------------|
-----3------------L--|--0--0----3----2------|-----------------------|
--2------------------|----------2----2------|-----------------0--2--|
--0------------------|----------------------|---------2----4--------|
---------------------|----------------------|-----------------------|
---------------------|--0-------------------|--0--------------------|


  Q.     Q.     Q       E  H.           E     Q    Q.     Q.      
---------------------|---------------------|---------------------|
--0-------------0----|---------------------|--------------0------|
---------------------|--2------------------|---------------------|
---------2-----------|-----0------------L--|-------2-------------|
--3------------------|---------------------|---------------------|
---------------------|---------------------|--0------------------|


  E   E   E  H        E     Q    E  Q    E  Q       E  E  E  Q    E  E  E   
-------------------------|-----------------------|-------------------------|
-------------------------|--0----0---------------|--0----------------------|
--3h--4p--3--0--------L--|----------3----3--2----|-----0-----3----0-----0--|
-------------------------|-----------------------|--------2----------2-----|
-------------------------|--3--------------------|--3----------------------|
--0----------------------|-----------------------|-------------------------|


  Q    Q.     Q.        E   E   E  H        E     Q    E  Q    E  Q     
---------------------|-------------------------|-----------------------|
--------------0------|-------------------------|--0----0---------------|
---------------------|--3h--4p--3--0--------L--|----------3----3--2----|
-------2-------------|-------------------------|-----------------------|
---------------------|-------------------------|--3--------------------|
--0------------------|--0----------------------|-----------------------|


  E  E  E  Q    E  E   E      Q.     Q.     Q       Q.     Q.     Q     
---------------------------|----------------8----|--7------------------|
--0------------------------|---------7-----------|---------8-----------|
-----0-----3----0-----(0)--|--8------------------|----------------9----|
--------2----------2-------|---------------------|---------------------|
--3------------------------|--6------------------|--7------------------|
---------------------------|---------------------|---------------------|


  Q.     Q.     Q       Q.     H        E     Q.     Q.     Q     
----------------8----|--7------------------|----------------8----|
---------7-----------|---------------------|---------7-----------|
--8------------------|---------9--------L--|--8------------------|
---------------------|---------------------|---------------------|
--9------------------|--7------------------|--6------------------|
---------------------|---------------------|---------------------|


  Q.     Q.     Q        Q.      Q.     Q        Q.       Q.        Q      
--7------------------|------------------8----|---7--------9--------11-----|
---------8-----------|----------10-----------|-----------(7)------(10)----|
----------------9----|--11-------------------|--(8)-----------------------|
---------------------|-----------------------|----------------------------|
--7------------------|---9-------------------|----------------------------|
---------------------|-----------------------|---7------------------------|


   E   E  E  Q    E  Q       W                   Q    Q    E  Q.      
--12--12--0--0------------|-------------------|----------------------|
--12--12--0--0------------|-------------------|----------------------|
--------------------------|-------------------|---------------0------|
--------------------------|-------------------|------------2---------|
---------------------5----|-------------------|--3----3--------------|
---0------0-------0-------|--0----------------|----------------------|


  Q    Q    E  Q.         E   E  E  Q    E  Q       W                 
----------------------|--12--12--0--0------------|-------------------|
----------------------|--12--12--0--0------------|-------------------|
---------------2------|--------------------------|-------------------|
------------4---------|--------------------------|-------------------|
--5----5--------------|---------------------5----|-------------------|
----------------------|---0------0-------0-------|--0----------------|


  Q    Q    E  Q.        Q    Q    E  Q.        E  Q    E  E  Q.      
----------------------|----------------------|--0--0-----------------|
----------------------|----------------------|--0--0----3-----2------|
---------------0------|----------------------|----------2-----2------|
------------2---------|--0----0-------0------|-----------------------|
--3----3--------------|------------2---------|-----------------------|
----------------------|----------------------|--0----------0---------|


  Q.     E  E  E  E  E     Q.     E  Q    Q       E  Q.     H         
------------------------|----------------------|---------------------|
------------------------|--0--------------0----|-----3---------------|
------------------0--2--|----------------------|--2------------------|
---------2-----4--------|---------2------------|--0---------0--------|
------------------------|--3---------3---------|---------------------|
--0---------0-----------|----------------------|---------------------|


  E  Q    E  E  Q.        Q.     E  E  E  E  E     Q.     E  Q    Q     
--0--0-----------------|------------------------|----------------------|
--0--0----3-----2------|------------------------|--0--------------0----|
----------2-----2------|------------------0--2--|----------------------|
-----------------------|---------2-----4--------|---------2------------|
-----------------------|------------------------|--3---------3---------|
--0----------0---------|--0---------0-----------|----------------------|


  E  Q.     H           Q    Q    E  Q.        E   E   E  E  H         
---------------------|----------------------|-------------------------|
---------------------|---------------0------|-------------------------|
--2------------------|----------------------|--3h--4p--3--0-----------|
-----0------0--------|-------2--------------|-------------------------|
---------------------|----------------------|-------------------------|
---------------------|--0---------0---------|--0-------------0--------|


  Q    E  E  E  E  Q       E  E  E  E  E  E  E  E     Q    Q    E  Q.      
------------------------|--------------------------|----------------------|
--0----0----------------|--0-----------------------|---------------0------|
----------3-----3--2----|-----0-----3-----0-----0--|----------------------|
------------------------|--------2-----------2-----|-------2--------------|
--3----------3----------|--3-----------3-----------|----------------------|
------------------------|--------------------------|--0---------0---------|


  E   E   E  E  H           Q    E  E  E  E  Q       E  E  E  E  E  E  E   E    
-------------------------|------------------------|----------------------------|
-------------------------|--0----0----------------|--0-------------------------|
--3h--4p--3--0-----------|----------3-----3--2----|-----0-----3-----0-----(0)--|
-------------------------|------------------------|--------2-----------2-------|
-------------------------|--3----------3----------|--3-----------3-------------|
--0-------------0--------|------------------------|----------------------------|


  Q.     Q.     Q       Q.     Q.     Q       Q.     Q.     Q     
----------------8----|--7------------------|----------------8----|
---------7-----------|---------8-----------|---------7-----------|
--8------------------|----------------9----|--8------------------|
---------------------|---------------------|---------------------|
--6------------------|--7------------------|--9------------------|
---------------------|---------------------|---------------------|


  Q.     H        E     Q.     Q.     Q       Q.     Q.     Q     
--7------------------|----------------8----|--7------------------|
---------------------|---------7-----------|---------8-----------|
---------9--------L--|--8------------------|----------------9----|
---------------------|---------------------|---------------------|
--7------------------|--6------------------|--7------------------|
---------------------|---------------------|---------------------|


   Q.      Q.     Q        Q.       Q.        Q         E   E  E  Q    E  Q     
------------------8----|---7--------9--------11-----|--12--12--0--0------------|
----------10-----------|-----------(7)------(10)----|--12--12--0--0------------|
--11-------------------|--(8)-----------------------|--------------------------|
-----------------------|----------------------------|--------------------------|
---9-------------------|----------------------------|---------------------5----|
-----------------------|---7------------------------|---0------0-------0-------|


  W                   Q    Q    E  Q.        Q    Q    E  Q.      
-------------------|----------------------|----------------------|
-------------------|----------------------|----------------------|
-------------------|---------------0------|---------------2------|
-------------------|------------2---------|------------4---------|
-------------------|--3----3--------------|--5----5--------------|
--0----------------|----------------------|----------------------|


   E   E  E  Q    E  Q       W                   Q    Q    E  Q.      
--12--12--0--0------------|-------------------|----------------------|
--12--12--0--0------------|-------------------|----------------------|
--------------------------|-------------------|---------------0------|
--------------------------|-------------------|------------2---------|
---------------------5----|-------------------|--3----3--------------|
---0------0-------0-------|--0----------------|----------------------|


                                               ^                    
  W                   E  E  E  E  E  Q.        E  Q    Q    Q.      
-------------------|------------------------|--0--0----------------|
-------------------|------------------------|--0-------3----2------|
--2----------------|--L--L--L--L------------|--0-------------------|
--0----------------|--L--L--L--L-----0------|--2-------------------|
-------------------|--------------2---------|--2-------------------|
-------------------|------------------------|--0-------------------|


  W                   W                   W                  
-------------------|-------------------|-------------------||
--L----------------|--L----------------|--L----------------||
--L----------------|--L----------------|--L----------------||
--L----------------|--L----------------|--L----------------||
--L----------------|--L----------------|--L----------------||
--L----------------|--L----------------|--L----------------||




Duration Legend
---------------
W - whole
H - half
Q - quarter
E - 8th
S - 16th
T - 32nd
X - 64th
. - note dotted
|-n-|  - n-tuplets


Tablature Legend
----------------
L - tied note
(n) - ghost note (optional)
h - hammer on
p - pull off
^ - brush up
Login or Register to remove this ad.