Ads

Dance Of Pales (Castlevania: Symphony of the Night) Guitar Tab

Submitted: Nov 20, 2011 by manyth

5
Average: 5 (3 votes)
Download | Listen
Game: Castlevania: Symphony of the Night
Composer(s): Michiru Yamane
Style: Arrangement, Fingerstyle
Series: Castlevania

AutoScroll: Slow | Medium | Fast
Game: Castlevania Symphony Of The Night
Title: Dance Of Pales
Composer: Michiru Yamane 
Tab by: manyth


      S  S  S  S  S  S  S  S  S  S  S  S  
E||--15-15-11-11-19-19-18-18-13-13-------|
B||--------------------------------13-13-|
G||---0--------------------------------L-|
D||--------------------------------------|
A||--------------------------------------|
E||--------------------------------------|


   S  S  S  S  S  S  S  S  S  S  S  S     S  S  S  S  S  S  S  S  S  S  S  S  
--15-15-11-11-19-19-18-18-13-13-------|--15-15-11-11-19-19-18-18-13-13-------|
--------------------------------13-13-|--------------------------------13-13-|
--------------------------------------|---0--------------------------------L-|
--------------------------------------|--------------------------------------|
--------------------------------------|--------------------------------------|
--------------------------------------|--------------------------------------|


   S  S  S  S  S  S  S  S  S  S T T T T      E  E  E  S S S  S S  S  
--15-15-11-11-19-19-18-18-13-13-------6-||---7----------------------|
------------------------------------8---||------8--8----8-----------|
----------------------------------7-----||*-----8--8------8---------|
--------------------------------8-------||*-----------------10-9-10-|
----------------------------------------||--------------------------|
----------------------------------------||---8--------8-------------|


  S S S T  T E.  S S  S S  S    E  E  E  E  E  E      E  S S S S S S  S S S S  
------7-7-10-7---------------|-----------8-----6--|--11----9-8-6-8-6-11-9-8-6-|
----8------------8-----------|--8--6--6-----6-----|------6--------------------|
--8----------------8---------|-----7--------7--7--|------7--------------------|
---------------------10-9-10-|--------------------|---------------------------|
-----------------------------|-----------8--------|---8----------8-L----------|
--8--------------------------|--6-----------------|---------------------------|


  E  S S E  S S S S S S    S S S S S S S S S S S S    E  S S E  E  S S E   
--3----3----------------|--3---8---L-6-3---8-6-----|--3-------------------|
--4--6---4----3-3-4-4-6-|----6-----------6-----8-6-|-----3---3-----3---3--|
---------5--------------|--------------------------|-----4---4-----4---4--|
------------------------|--------------------------|----------------------|
------------------------|--------------------------|----------------------|
--4---------4-L---------|--4-L-----4-L-------------|--3---------3---------|


  E  S S E  E  S S E        E  S S E  S S S S S S    S S S S S S S S S S S S  
-----------------------||---3----2--------------0-|--0-2-2-3-3-2-3-7-3-0-----|
-----3---3-----3---3---||------0---0----2-2-4-4---|----------------------1-0-|
-----4---4-----4---4--*||*------------------------|--------------------------|
----------------------*||*------------------------|--------------------------|
-----------------------||-------------2-L---------|--------------2-L---------|
--3---------3----------||---0---------------------|--0-L---------------------|


  E.  S E  E  S S E     E  S S E  E  S S E     E  S S E  S S S S S S  
--3---2-------3---3--|-----3---3-----3---3--|--3----2--------------0-|
--------0-----0---0--|-----0---0-----0---0--|-----0---0----2-2-4-4---|
---------------------|----------------------|------------------------|
---------------------|----------------------|------------------------|
-----------2---------|------------2---------|------------2-L---------|
--0------------------|--0-------------------|--0---------------------|


  S S S S S S S S S S S S     E.   S  E  E   S  S  S.T  
--0-2-2-3-5-3-2-0---0-3-7-|--12-------------12---------|
------------------0-------|-------12-10--------12-10---|
--------------------------|---0----------0-------------|
--------------------------|----------------------------|
--------------2-L---------|----------------------------|
--0-L---------------------|----------------------------|


   E.   S  E  E   S  S  S.T    S  S S S S  S S S S S S S  
--15---14--------15-14------|--------------------7-8-----|
----------13-----------13---|---------7--------7-------7-|
--12----------0-------------|-------9--------9-------9---|
----------------------------|--9-10-----9-10-------------|
----------------------------|----------------------------|
----------------------------|--7-------------------------|


   S  S  S  S  S  S  S  S  S  S  S  S       E  E  E  S S S  S S  S  
--------12-14-------12-14-14----12-14--||---7----------------------|
--12-13-------12-13----------13--------||------8--8----8-----------|
--------------------------------------*||*-----8--8------8---------|
--------------------------------------*||*-----------------10-9-10-|
---------------------------------------||--------------------------|
---------------------------------------||---8--------8-------------|


  S S S T  T E.  S S  S S  S    E  E  E  E  E  E      E  S S S S S S  S S S S  
------7-7-10-7---------------|-----------8-----6--|--11----9-8-6-8-6-11-9-8-6-|
----8------------8-----------|--8--6--6-----6-----|------6--------------------|
--8----------------8---------|-----7--------7--7--|------7--------------------|
---------------------10-9-10-|--------------------|---------------------------|
-----------------------------|-----------8--------|---8----------8-L----------|
--8--------------------------|--6-----------------|---------------------------|


  E  S S E  S S S S S S    S S S S S S S S S S S S    E  S S E  E  S S E   
--3----3----------------|--3---8---L-6-3---8-6-----|--3-------------------|
--4--6---4----3-3-4-4-6-|----6-----------6-----8-6-|-----3---3-----3---3--|
---------5--------------|--------------------------|-----4---4-----4---4--|
------------------------|--------------------------|----------------------|
------------------------|--------------------------|----------------------|
--4---------4-L---------|--4-L-----4-L-------------|--3---------3---------|


  E  S S E  E  S S E       E  S S E  S S S S S S    S S E  E.  S S S S S  
-----------------------||--3----3----------------|--3---8------6---8-6---|
-----3---3-----3---3---||--4--6---4----3-3-4-4-6-|----6----------6-----6-|
-----4---4-----4---4--*||---------5--------------|-----------------------|
----------------------*||------------------------|-----------------------|
-----------------------||------------------------|-----------------------|
--3---------3----------||--4---------4-L---------|--4-L----4-------------|


  E  S S E  Q    S S    S S S S S S S S S S S S    S S S S S S S S S S S  S  
--6------6-----------|--------------2-4-4-6-6---|--------4-4-6-6-7-7-9-9-11-|
--6--4-6-----------2-|--2-4-4-6-6-4-----------6-|--6-7-7--------------------|
--7------------------|--------------------------|---------------------------|
--8------------------|--------------------------|---------------------------|
--8------------------|--------------------------|---------------------------|
--6------------------|--------------------------|---------------------------|


  S S S S S S S S S S S S     S  S  Q    S  S  Q       S S H        E          
------------4-4-2-2-1-----|--11-13---------13-------|----6-6-----------|
--4-6-6-7-7-----------4-2-|--------11----L----11----|--L-6-6-----------|
--------------------------|-------------------------|----7-7-----------|
--------------------------|-------------------------|----8-8-----------|
--------------------------|-------------------------|----8-8-----------|
--------------------------|-------------------------|----6-6-----------|




Duration Legend
---------------
W - whole
H - half
Q - quarter
E - 8th
S - 16th
T - 32nd
X - 64th
. - note dotted
|-n-|  - n-tuplets


Tablature Legend
----------------
L - tied note
x - dead note
g - grace note
(n) - ghost note
> - accentuded note
NH - natural harmonic
AH - artificial harmonic
TH - tapped harmonic
SH - semi harmonic
PH - pitch harmonic
h - hammer on
p - pull off
b - bend
br - bendRelease
pb - preBend
pbr - preBendRelease
brb - bendReleaseBend
\n/ - tremolo bar dip
\n - tremolo bar dive
-/n - tremolo bar Release up
/n\ - tremolo bar inverted dip
/n - tremolo bar return
-\n - tremolo bar Release down
S - shift slide
s - legato slide
/ -  slide into from below or out of upwards
\ -  slide into from above or out of downwards
~ - vibrato
W - wide vibrato
tr - trill
TP - tremolo picking
T - tapping
S - slap
P - pop
< - fade in
^ - brush up
v - brush down
Login or Register to remove this ad.

5 comments on Dance Of Pales

I've never played Symphony of

5

I've never played Symphony of the Night or heard its soundtrack, but this song definitely stands out.

Thanks for the awesome arrangement.

@ NorthStar

appreciating thanks =) !!!

10th bar play 8.fret

5

|------8---L-6-3---8-6-----|
|--8-6-----------6-----8-6-|
|--------------------------|
|--------------------------|
|--------------------------|
|--4-L-----4-L-------------|

At the 10th bar the first note,.... (8.fret)This one is maybe easyier to play
sorry for that ^^

damn,i wanted to tab this for

5

damn,i wanted to tab this for electrical but you did a fantastic job already.*.*
you should do more SOTN songs man!

@JordanVS

Thank you ! I'll try my best to tab some more =)