An Empty Tome (Castlevania: Order of Ecclesia) Bass Tab

Submitted: Apr 28, 2010 by auriplane (Last updated: Apr 28, 2010)

0
Download | Listen
Game: Castlevania: Order of Ecclesia
Composer(s): Michiru Yamane, Yasuhiro Ichihashi
Style: Transcription
Series: Castlevania

AutoScroll: Slow | Medium | Fast
                Castlevania OoE - An Empty Tome BASS TAB
            Composed by Michiru Yamane and Yasuhiro Ichihashi

                 Tabbed by Auriplane ([email protected])




        Part A   -   Play twice 
                    (Play only once when you repeat this part)


   E.    S E   S S E.    S E   S S  E.    S E   S S E.    S E   S S
G |--------------------------------|--------------------------------|
D |--------------------------------|--------------------------------|
A |--------------------------------|--------------------------------|
E |2-----2-2---2-2-2-----2-2---2-2-|2-----2-2---2-2-2-----2-2---2-2-|
B |--------------------------------|--------------------------------|
                                                                     
                                                                     
   E.    S E   S S E.    S E   S S  E.    S E   S S E.    S S S S S  
G |--------------------------------|--------------------------------|
D |--------------------------------|------------------------------2-|
A |--------------------------------|--------------------------2-4---|
E |2-----2-2---2-2-2-----2-2---2-2-|2-----2-2---2-2-2-----2-2-------|
B |--------------------------------|--------------------------------|

    
        Part B   -   Play twice


   E.    S E   S S E.    S E   S S  E.    S E   S S E.    S S S S S
G |--------------------------------|--------------------------------|
D |--------------------------------|----------------------------2-4-|
A |--------------------------------|--------------------------4-----|
E |2-----2-2---2-2-2-----2-2---2-2-|2-----2-2---2-2-2-----2-2-------|
B |--------------------------------|--------------------------------|
                                                         
                                                         
   E.    S E   S S E.    S E   S S  E.    S E   S S E.    S E   S S
G |--------------------------------|--------------------------------|
D |--------------------------------|------------------------2---2-2-|
A |--------------------------------|--------------------------------|
E |2-----2-2---2-2-2-----2-2---2-2-|2-----2-2---2-2-2-----2---------|
B |--------------------------------|--------------------------------|
                                                               
                                                               
   E.    S E   S S E.    S E   S S  E.    S E   S S E.    S E   S S
G |--------------------------------|--------------------------------|
D |--------------------------------|--------------------------------|
A |5-----5-5---5-5-5-----5-5---5-5-|4-----4-4---4-4-3-----3-3---3-3-|
E |--------------------------------|--------------------------------|
B |--------------------------------|--------------------------------|
                                     
                                       First ending 
                                                               
   E.    S E   S S E.    S E   S S  E.    S E   S S E.    S E   S S
G |--------------------------------|--------------------------------|
D |--------------------------------|--------------------------------|
A |2-----2-2---2-2-2-----2-2---2-2-|--------------------------------|
E |--------------------------------|0-----0-0---0-0-0-----0-0---1-1-|
B |--------------------------------|--------------------------------|

                                       Second ending 

                                    E.    S E   S S E.    S E   S S  
                                 G |--------------------------------|
                                 D |--------------------------------|
                                 A |--------------------------------|
                                 E |0-----0-0---0-0-0-----0-0---0-0-|
                                 B |--------------------------------|
 

        Now play parts A and B again, before going on to part C.

        
        Part C
 
   
   E.    S E   S S E.    S E   S S  E.    S E   S S E.    S E   S S
G |--------------------------------|--------------------------------|
D |--------------------------------|--------------------------------|
A |5-----5-5---5-5-5-----5-5---5-5-|5-----5-5---5-5-5-----5-5---5-5-|
E |--------------------------------|--------------------------------|
B |--------------------------------|--------------------------------|
                                                                
                                                                
   E.    S E   S S E.    S E   S S  E.    S E   S S E.    S E   S S
G |--------------------------------|--------------------------------|
D |--------------------------------|------------4-4-2-----2-2---2-2-|
A |4-----4-4---4-4-4-----4-4---2-4-|--------------------------------|
E |--------------------------------|2-----2-2-----------------------|
B |--------------------------------|--------------------------------|
                                                                
                                                                
   E.    S E   S S E.    S E   S S  E.    S E   S S E.    S E   S S
G |--------------------------------|--------------------------------|
D |--------------------------------|--------------------------------|
A |5-----5-5---5-5-5-----5-5---5-4-|2-----2-2---2-2-2-----2-2---2-2-|
E |--------------------------------|--------------------------------|
B |--------------------------------|--------------------------------|
                              
                              
   E.    S E   S S E.    S E   E    E   E   E   E   E   E   E   E 
G |--------------------------------|--------------------------------|
D |--------------------------------|--------------------------------|
A |4-----4-4---4-4-4-----4-4---4---|L---4---2---0-----------4-------|
E |--------------------------------|----------------4---1-----------|
B |--------------------------------|----------------------------2---|


        Part D
   
   
   E   E   E   E   E   E   E   E    E   E   E   E   E   E   E   E 
G |--------------------------------|--------------------------------|
D |--------------------------------|--------------------------------|
A |------------------------0---4---|2---2-----------2---2-----------|
E |2---2---1---1---2---2-----------|--------2---2-----------2---2---|
B |--------------------------------|--------------------------------|
                                                                  
                                                                  
   E   E   E   E   E   E   E   E    E   E   E   E   E   E   E   E 
G |--------------------------------|--------------------------------|
D |--------------------------------|--------------------------------|
A |------------------------4---4---|----------------4---4-----------|
E |--------1---1---4---4-----------|2---2---2---2---------------1---|
B |2---2---------------------------|------------------------2-------|
                                                                  
                                                                  
   E   E   E   E   E   E   E   E    E   E   E   E   E   E   E   E 
G |--------------------------------|--------------------------------|
D |--------------------------------|--------------------------------|
A |------------------------0---4---|2---2-----------2---2-----------|
E |2---2---1---1---2---2-----------|--------2---2-----------2---2---|
B |--------------------------------|--------------------------------|


   E   S S E   S S E   S S E   S S  E   S S E   S S E   S S S S S S
G |--------------------------------|--------------------------------|
D |--------------------------------|--------------------------------|
A |5---5-5-5---5-5-5---5-5-5---5-5-|4---4-4-4---4-4-4---4-4-4-2-----|
E |--------------------------------|----------------------------4---|
B |--------------------------------|------------------------------2-|




Duration Legend
---------------
W - whole
H - half
Q - quarter
E - 8th
S - 16th
. - note dotted


Tablature Legend
----------------
L - tied note

Login or Register to remove this ad.