A Clashing of Waves (Castlevania: Order of Ecclesia) Bass Tab

Submitted: Aug 31, 2010 by auriplane

0
Download | Listen
Game: Castlevania: Order of Ecclesia
Composer(s): Michiru Yamane, Yasuhiro Ichihashi
Style: Transcription
Series: Castlevania

AutoScroll: Slow | Medium | Fast
                Castlevania OoE - A Clashing of Waves BASS TAB
                Composed by Michiru Yamane, Yasuhiro Ichihashi

                    Tabbed by Auriplane ([email protected])


There are two versions in this tab.  First, a five-string version,
then a four-string version in drop-D tuning.




                            FIVE STRING VERSION

        Intro

G |--------------------------------|
D |--------------------------------|
A |--------------------------------|  x4
E |5-5-3-5---3-5-5-3-5---3-5-5-3-3-|
B |--------------------------------|


        Part A

G |--------------------------------|                                   \
D |--------------------------------|                                    \
A |--------------------------------|  x4                                 |
E |5-5-3-5---3-5-5-3-5---3-5-5-3-3-|                                     |
B |--------------------------------|                                     |
                                                                         |
                                                                         |
G |--------------------------------|--------------------------------|    |
D |--------------------------------|--------------------------------|    |
A |--------------------------------|5-5-3-5---3-5-5-3-5---3-5-5-3-3-|    | x2
E |1-1-0-1---0-1-1-0-1---0-1-1-0-0-|--------------------------------|    |
B |--------------------------------|--------------------------------|    |
                                                                         |
                                                                         |
G |--------------------------------|--------------------------------|    |
D |--------------------------------|--------------------------------|    |
A |7-7-5-7---5-7-7-5-7---5-7-7-----|--------------------------------|    |
E |--------------------------------|----------------------------3-3-|   /
B |----------------------------3-4-|5-5-3-5---3-5-5-3-5---3-5-5-----|  /


        Part B

G |--------------------------------|--------------------------------|
D |--------------------------------|--------------------------------|
A |--------------------------------|--------------------------3-----|  x2
E |5-----5---5-6-------6-----3---3-|5-----5---5-6-------6-----------|
B |--------------------------------|--------------------------------|





                               DROP D VERSION

        Intro

G |--------------------------------|
D |--------------------------------| x4
A |--------------------------------|
D |7-7-5-7---5-7-7-5-7---5-7-7-5-5-|


        Part A

G |--------------------------------|                                   \
D |--------------------------------| x4                                 \
A |--------------------------------|                                     |
D |7-7-5-7---5-7-7-5-7---5-7-7-5-5-|                                     |
                                                                         |
                                                                         |
G |--------------------------------|--------------------------------|    |
D |--------------------------------|--------------------------------|    | x2
A |--------------------------------|5-5-3-5---3-5-5-3-5---3-5-5-3-3-|    |
D |3-3-2-3---2-3-3-2-3---2-3-3-2-2-|--------------------------------|    |
                                                                         |
                                                                         |
G |--------------------------------|--------------------------------|    |
D |2-2-0-2---0-2-2-0-2---0-2-2-----|--------------------------------|    |
A |--------------------------------|--------------------------------|   /
D |----------------------------0-1-|2-2-0-2---0-2-2-0-2---0-2-2-5-5-|  /


        Part B

G |--------------------------------|--------------------------------|
D |--------------------------------|--------------------------------| x2
A |--------------------------------|--------------------------------|
D |7-----7---7-8-------8-----5---5-|7-----7---7-8-------8-----10----|


Login or Register to remove this ad.