Successor of Fate (Castlevania: Harmony of Dissonance) Bass/Guitar Tab

Submitted: Mar 02, 2012 by auriplane

5
Average: 5 (5 votes)
Download | Listen
Game: Castlevania: Harmony of Dissonance
Composer(s): Michiru Yamane, Soshiro Hokkai
Style: 2 or more instruments, Alternate picking, Transcription
Series: Castlevania

This song is also called Juste's Theme

AutoScroll: Slow | Medium | Fast
                                  Harmony of Dissonance - Successor of Fate
                                 Composed by Michiru Yamane & Soshiro Hokkai

                                   Tabbed by Auriplane ([email protected])



This is Juste's Theme, Successor of Fate, for three guitars and bass.  The first five measures are down an
octave, because otherwise that 25 is just too awkward to hit.  Also, having the intro down an octave gives
a bit more power to the part that DOES go up to 25, later on.  At least, since I put everything on guitars.
If you record an arrangement of this, obviously do whatever you want, but the intro would be cool on organ!

In the melody, when I write 25, I'm fretting 24, bending up with the trem bar for that note, then sliding
down to 17, and up to 23.  I pick the 17 and 23, too.  Sounds pretty good, I think!!



                                                  LEAD GUITAR


      H.            Q        H.            S  S  S  S     S  S  S  S  S  S  S  S  S  S  S  S  S  S  S  S
e||----------------------|----------------------------|--------------13----11----------------------------|
B||----------------------|----------------------------|-----------11----11----11-14----13----11----------|
G||--13------------12----|--10------------------------|-----11-11-------------------11----11----13-------|
D||----------------------|----------------------10-11-|--13----------------------------------------13----|
A||----------------------|----------------11-13-------|-----------------------------------------------13-|
E||----------------------|----------------------------|--------------------------------------------------|


   H         H            H         H            H.             S  S  S  S     H.             S  S  S  S
----------------------|----------------------|-----------------------------|-----------------------------|
----------------------|----------------------|-----------------------------|-----------------------------|
----------------------|----------------------|--18~------------17----------|-----------------------------|
--12--------13--------|----------------------|--------------------18-------|--20~------------18-16-------|
----------------------|--16--------15--------|-----------------------18-20-|-----------------------20-16-|
----------------------|----------------------|-----------------------------|-----------------------------|


                                             (bend to 25 with trem bar)
   S  S  S  S  S  S  E   Q    S  S  S  S     Q    S S   E  E.  S   Q
--------------------------------------21-|--25----L-LS-17--L---LS-23~----|      <-- Originally distinct notes,
--------------21-19----------------21----|-------------------------------|          but too fast--when I play,
-----------18-------18~--L------21-------|-------------------------------|          sliding sounds better
--16-19-19-------------------------------|-------------------------------|
-----------------------------------------|-------------------------------|
-----------------------------------------|-------------------------------|


**song repeats back to here                                    *      The * note is slightly late.
               |---3---|                                     3 3   3  (check the GP5 for exact rhythm)
  E   E  S  S  S   S   S  E   E   E   E     S  S  S  S  S  S S S   S  S  S  S  S  S  S  S  S
-----------------------------------------|----------------------------------------------------|
-------------------------13--14----------|----------------------------16----------------------|
---------------------------------15------|-------15----16-15-L-16h-18----18-18-16-16-15-------|
--------------11h-13h-17-------------15--|----16----18----------------------------------16----|
-----12----15----------------------------|-------------------------------------------------16-|
-----------------------------------------|----------------------------------------------------|


                                                                             |---3---|
   H         S  S  S  S  E   S  S    Q.       S  S  Q.      E      H         E   E   E   S  S  S  S
----------------------------------|----------------------------|------------------------------------|
----------------------------------|----------------------------|------------------------------------|
----------------------------------|----------------------------|--18~-----------17--18--17----------|
------------------16-18-20--18-20-|--L~------19-17-19~---------|---------------------------18-------|
--18~----------18-----------------|----------------------------|------------------------------18-20-|
----------------------------------|----------------------------|------------------------------------|


             |---3---|
   H         E   E   E   S  S  S  S     S  S  S  S  S  S  E   Q    S  S  S  S
------------------------------------|--------------------------------------21-|
------------------------------------|--------------21-19----------------21----|
------------------------------------|-----------18-------18~--L------21-------|
--20~-----------18--20--18-16-------|--16-19-19-------------------------------|
------------------------------20-16-|-----------------------------------------|
------------------------------------|-----------------------------------------|


 (trem bar again)                               |---3---|
   Q    S S   E   E.  S   Q        E   E  S  S  S   S   S  E   E   E   E
--25----L-LS-17~--L---LS-23~----|-----------------------------------------|
--------------------------------|-------------------------13--14----------|
--------------------------------|---------------------------------15------|
--------------------------------|--------------11h-13h-17-------------15--|
--------------------------------|-----12----15----------------------------|
--------------------------------|-----------------------------------------|


                      * Slightly late, again
                   3  3   3
  S  S  S  S  S  S S  S   S  S  S  S  S  S  S  S  S     H         S  S  S  S  E   S  S
----------------------------------------------------|----------------------------------|
----------------------------16----------------------|----------------------------------|
-------15----16-15-L-16h-18----18-18-16-16-15-------|----------------------------------|
----16----18----------------------------------16----|------------------16-18-20--18-20-|
-------------------------------------------------16-|--18~----------18-----------------|
----------------------------------------------------|----------------------------------|


                               PM PM PM PM
  Q.       S  S  Q.      E     S  S  S  S  S S S S S S S S S S S S    S S S S S S S S S S S S S S S S
----------------------------|--------------------------------------|----------------------------------|
----------------------------|--------------------------------5-----|----------------------------------|
----------------------------|--------------5-6---8---5---6-------8-|----5---6-----------5-------6-5---|
--L~------19-17-19~---------|--------------------------------------|------------8---7-------8-------7-|
----------------------------|--------------------------------------|----------------------------------|
----------------------------|--6--6--6--6--------------------------|----------------------------------|


  PM PM PM PM
  S  S  S  S  S S S S S S S S S S S S    S S S S S S S S S S S S S S S S
--------------------------------------|----------------------------------|
--------------------------------5-----|----------------------------------|
--------------5-6---8---5---6-------8-|----5---6-----------5-------6-5---|
--------------------------------------|------------8---7-------8-------7-|
--------------------------------------|----------------------------------|
--6--6--6--6--------------------------|----------------------------------|


  PM PM PM PM
  S  S  S  S  S S S S S S S S S S S S    S S S S S S S S S S S S S S S S
--------------------------------------|----------------------------------|
--------------------------------5-----|----------------------------------|
--------------5-6---8---5---6-------8-|----5---6-----------5-------6-5---|
--------------------------------------|------------8---7-------8-------7-|
--------------------------------------|----------------------------------|
--6--6--6--6--------------------------|----------------------------------|


  PM PM PM PM
  S  S  S  S  S S S S S S S S S S S S    S S S S S S S S S S S S S S S S
--------------------------------------|----------------------------------|
--------------------------------5-----|----------------------------------|
--------------5-6---8---5---6-------8-|----5---6-----------5-------6-5---|
--------------------------------------|------------8---7-------8-------7-|
--------------------------------------|----------------------------------|
--6--6--6--6--------------------------|----------------------------------|


             |---3---|                            |---3---|
   H         E   E   E   S  S  S  S     H         E   E   E   S  S  S  S
------------------------------------|------------------------------------|
------------------------------------|------------------------------------|
--18~-----------17--18--17----------|------------------------------------|
---------------------------18-------|--20~-----------18--20--18-16-------|
------------------------------18-20-|------------------------------20-16-|
------------------------------------|------------------------------------|

                                           (trem bar again)
   S  S  S  S  S  S  E   Q    S  S  S  S     Q    S S   E   E.  S   Q
--------------------------------------21-|--25----L-LS-17~--L---LS-23~----||
--------------21-19----------------21----|--------------------------------||
-----------18-------18~--L------21-------|--------------------------------||
--16-19-19-------------------------------|--------------------------------||
-----------------------------------------|--------------------------------||
-----------------------------------------|--------------------------------||






                                          UPPER HARMONY


      W                   Q.      Q.     Q       W                   S S S S S S S S S S S S S S S S
e||--------------------|----------------------|-------------------|----------------------------------|
B||--------------------|----------------------|-------------------|----------------------------------|
G||--------------------|----------------------|-------------------|----------------------------------|
D||--10----------------|--8------10-----------|--8----------------|----8-6-8---8---8---8---8---8---8-|
A||--------------------|-----------------9----|-------------------|--6-------9---8---6---5---6---8---|
E||--------------------|----------------------|-------------------|----------------------------------|


  H         H           H.            S  S  S  S     E   E  E   E  Q     Q
---------------------|---------------------------|----------------------------|
---------------------|--9------------------------|----------------------------|
---------------------|---------------------------|----------------------------|
---------------------|---------------13-------11-|--13--13--L--15--L----13----|
--9------------------|------------------13-11----|----------------------------|
-----------11--------|---------------------------|----------------------------|


                                                    |--3--|
   Q    S  S  S  S S  S  S S  S  S  S  S     Q.     S S   S   H
-----------------------------------------|------------8h-11h-13--------|
-----------------------------------13-10-|-----------------------------|
-------------------9----11-9-13-11-------|--12-------------------------|
--11----L-10-13-11---13------------------|-----------------------------|
-----------------------------------------|-----------------------------|
-----------------------------------------|-----------------------------|


**song repeats back to here
   S   S   S   S   S   S   S   S   S   S   S   S   S   S   S   S
----------------------------------13-(13)-13-(13)-13-(13)-13-(13)-|
--14-(14)-14-(14)-14-(14)-14-(14)---------------------------------|
------------------------------------------------------------------|
------------------------------------------------------------------|
------------------------------------------------------------------|
------------------------------------------------------------------|


   S   S   S   S   S   S   S   S   S   S   S   S   S   S   S   S
--11-(11)-11-(11)-11-(11)-11-(11)-14-(14)-14-(14)-14-(14)-11-(11)-|
------------------------------------------------------------------|
------------------------------------------------------------------|
------------------------------------------------------------------|
------------------------------------------------------------------|
------------------------------------------------------------------|


   S   S   S   S   S   S   S   S   S   S   S   S   S   S   S   S
--14-(14)-14-(14)-14-(14)-14-(14)---------------------------------|
----------------------------------11-(11)-11-(11)---------11-(11)-|
--------------------------------------------------11-(11)---------|
------------------------------------------------------------------|
------------------------------------------------------------------|
------------------------------------------------------------------|


                                                   |--3--|  |--3--|
   S   S   S   S   S   S   S   S   S   S   S   S   S  S  S  S  S  S     E   E  E   E  Q    S  S E
--11-(11)-11-(11)-11-(11)-11-(11)--------------------14-13-11-------|-------------13--L------------|
----------------------------------13-(13)-13-(13)-13----------13-10-|--11--11----------------------|
--------------------------------------------------------------------|------------------------------|
--------------------------------------------------------------------|------------------------11----|
--------------------------------------------------------------------|------------------------------|
--------------------------------------------------------------------|------------------------------|


                                                                                 |--3-|
   E   E  E   E  Q     Q        Q    S  S  S  S S  S  S S  S  S  S  S     Q.     S S  S  H
----------------------------|-----------------------------------------|------------8h11h13--------|
----------------------------|-----------------------------------13-10-|---------------------------|
-------------10--L----------|-------------------9----11-9-13-11-------|--12-----------------------|
--13--13--L-----------13----|--11----L-10-13-11---13------------------|---------------------------|
----------------------------|-----------------------------------------|---------------------------|
----------------------------|-----------------------------------------|---------------------------|


   S   S   S   S   S   S   S   S   S   S   S   S   S   S   S   S
----------------------------------13-(13)-13-(13)-13-(13)-13-(13)-|
--14-(14)-14-(14)-14-(14)-14-(14)---------------------------------|
------------------------------------------------------------------|
------------------------------------------------------------------|
------------------------------------------------------------------|
------------------------------------------------------------------|


   S   S   S   S   S   S   S   S   S   S   S   S   S   S   S   S
--11-(11)-11-(11)-11-(11)-11-(11)-14-(14)-14-(14)-14-(14)-11-(11)-|
------------------------------------------------------------------|
------------------------------------------------------------------|
------------------------------------------------------------------|
------------------------------------------------------------------|
------------------------------------------------------------------|


   S   S   S   S   S   S   S   S   S   S   S   S   S   S   S   S
--14-(14)-14-(14)-14-(14)-14-(14)---------------------------------|
----------------------------------11-(11)-11-(11)---------11-(11)-|
--------------------------------------------------11-(11)---------|
------------------------------------------------------------------|
------------------------------------------------------------------|
------------------------------------------------------------------|


                                                   |--3--|  |--3--|
   S   S   S   S   S   S   S   S   S   S   S   S   S  S  S  S  S  S     W
--11-(11)-11-(11)-11-(11)-11-(11)--------------------14-13-11-------|---------------------|
----------------------------------13-(13)-13-(13)-13----------13-10-|--14~----------------|
--------------------------------------------------------------------|---------------------|
--------------------------------------------------------------------|---------------------|
--------------------------------------------------------------------|---------------------|
--------------------------------------------------------------------|---------------------|


  H         H             W                    H        S  S  S  S  S  S  S  S     W
----------------------|---------------------|-------------11-13-15-16-15-13-11-|--13~----------------|
--L--------13~--------|--14~----------------|--L--------L----------------------|---------------------|
----------------------|---------------------|----------------------------------|---------------------|
----------------------|---------------------|----------------------------------|---------------------|
----------------------|---------------------|----------------------------------|---------------------|
----------------------|---------------------|----------------------------------|---------------------|


  H         H             W                    H         Q    Q        H.           Q
--L--------15~--------|--16~----------------|--L--------15---------|---------------------|
----------------------|---------------------|----------------------|---------------------|
----------------------|---------------------|----------------------|--13-----------------|
----------------------|---------------------|----------------------|---------------------|
----------------------|---------------------|----------------------|---------------------|
----------------------|---------------------|----------------------|---------------------|


                                                                                 |--3-|
   E   E  E   E  Q     Q        Q    S  S  S  S S  S  S S  S  S  S  S     Q.     S S  S  H
----------------------------|-----------------------------------------|------------8h11h13--------||
----------------------------|-----------------------------------13-10-|---------------------------||
----------------------------|-------------------9----11-9-13-11-------|--12-----------------------||
--13--13--L--15--L----13----|--11----L-10-13-11---13------------------|---------------------------||
----------------------------|-----------------------------------------|---------------------------||
----------------------------|-----------------------------------------|---------------------------||






                                              LOWER HARMONY



     H.           Q       Q.     Q.     Q       H        Q    Q       H        H           H        H
e||--------------------|---------------------|---------------------|--------------------|--------------------|
B||--------------------|---------------------|---------------------|--------------------|--------------------|
G||--------------------|---------------------|---------------------|--------------------|--------------------|
D||--3-----------------|---------4-----------|--4------------------|--------------------|--------------------|
A||---------------6----|--4------------------|-----------3----4----|-----------3--------|--------------------|
E||--------------------|----------------6----|---------------------|--6-----------------|--6--------5--------|


   H.           S  S S  S    E  E  E   E  Q    Q        Q    S  S S  S  S  S S  S S  S  S S
--------------------------|-------------------------|---------------------------------------|
--------------------------|-------------------------|---------------------------------------|
--10----------------------|-------------------------|------------------------8----9----10-8-|
----------------8---------|--9--9--L--11--L----9----|-------------9----11-10---11---11------|
------------------11-8-11-|-------------------------|--12----L-11---12----------------------|
--------------------------|-------------------------|---------------------------------------|


          |--3--|             **song repeats back to here
   Q.     S S   S   H           S  S  S  S  S  S  S  S   S   S   S   S   S   S   S   S
-----------------------------|----------------------------------------------------------|
-----------------------------|--8-(8)-8-(8)-8-(8)-8-(8)-10-(10)-10-(10)-10-(10)-10-(10)-|
------------8h-10h-12--------|----------------------------------------------------------|
--11-------------------------|----------------------------------------------------------|
-----------------------------|----------------------------------------------------------|
-----------------------------|----------------------------------------------------------|


   S   S   S   S   S   S   S   S   S   S   S   S   S   S   S   S
--------------------------------------------------11-(11)---------|
----------------------------------11-(11)-11-(11)---------11-(11)-|
--11-(11)-11-(11)-11-(11)-11-(11)---------------------------------|
------------------------------------------------------------------|
------------------------------------------------------------------|
------------------------------------------------------------------|


                                                                                    |--3--| |-3-|
   S   S   S   S   S   S   S   S   S   S  S  S  S  S   S   S      Q.      S  S Q    S  S  S S S S
--------------------------------------------------------------|-----------------------------------|
--11-(11)-11-(11)-11-(11)-11-(11)-----------------------------|-----------------------------------|
----------------------------------11-(11)-8-(8)-8-(8)-11-(11)-|----------------8------------------|
--------------------------------------------------------------|--10------10-11--------11-10-8-7---|
--------------------------------------------------------------|---------------------------------8-|
--------------------------------------------------------------|-----------------------------------|


   E   E  E  E  Q    S S E     E  E  E   E  Q     Q        Q    S  S S  S  S  S S  S S  S  S S
----------------------------|--------------------------|---------------------------------------|
-------------9--L-----------|--------------------------|---------------------------------------|
--10--10--------------------|--------------------------|------------------------8----9----10-8-|
----------------------------|--9--9--L--11--L----------|-------------9----11-10---11---11------|
-----------------------8----|--------------------11----|--12----L-11---12----------------------|
----------------------------|--------------------------|---------------------------------------|


          |--3--|
   Q.     S S   S   H           S  S  S  S  S  S  S  S   S   S   S   S   S   S   S   S
-----------------------------|----------------------------------------------------------|
-----------------------------|--8-(8)-8-(8)-8-(8)-8-(8)-10-(10)-10-(10)-10-(10)-10-(10)-|
------------8h-10h-12--------|----------------------------------------------------------|
--11-------------------------|----------------------------------------------------------|
-----------------------------|----------------------------------------------------------|
-----------------------------|----------------------------------------------------------|


   S   S   S   S   S   S   S   S   S   S   S   S   S   S   S   S
--------------------------------------------------11-(11)---------|
----------------------------------11-(11)-11-(11)---------11-(11)-|
--11-(11)-11-(11)-11-(11)-11-(11)---------------------------------|
------------------------------------------------------------------|
------------------------------------------------------------------|
------------------------------------------------------------------|


                                                                                    |--3--| |-3-|
   S   S   S   S   S   S   S   S   S   S  S  S  S  S   S   S      Q.      S  S Q    S  S  S S S S
--------------------------------------------------------------|-----------------------------------|
--11-(11)-11-(11)-11-(11)-11-(11)-----------------------------|-----------------------------------|
----------------------------------11-(11)-8-(8)-8-(8)-11-(11)-|----------------8------------------|
--------------------------------------------------------------|--10------10-11--------11-10-8-7---|
--------------------------------------------------------------|---------------------------------8-|
--------------------------------------------------------------|-----------------------------------|


  W                    H        E.   E.  E     W                    H        S S S  S S  S S S
--------------------|-----------------------|--------------------|--------------------8--------|
--8~----------------|--L-----------------8--|--9~----------------|--L--------L-8-9-11---11-9-8-|
--------------------|-----------9---10------|--------------------|-----------------------------|
--------------------|-----------------------|--------------------|-----------------------------|
--------------------|-----------------------|--------------------|-----------------------------|
--------------------|-----------------------|--------------------|-----------------------------|


  W                    H         E.  E.  E      W                    H         Q    Q
--------------------|-----------12-------9--|---------------------|----------------------|
--9~----------------|--L-------------9------|--13~----------------|--L--------11---------|
--------------------|-----------------------|---------------------|----------------------|
--------------------|-----------------------|---------------------|----------------------|
--------------------|-----------------------|---------------------|----------------------|
--------------------|-----------------------|---------------------|----------------------|


   H.           S S S S    E  E  E   E  Q    Q        Q    S  S S  S  S  S S  S S  S  S S
------------------------|-------------------------|---------------------------------------|
------------------------|-------------------------|---------------------------------------|
--10------------8-----6-|-------------------------|------------------------8----9----10-8-|
------------------8-6---|--9--9--L--11--L----9----|-------------9----11-10---11---11------|
------------------------|-------------------------|--12----L-11---12----------------------|
------------------------|-------------------------|---------------------------------------|


          |--3--|
   Q.     S S   S   H
-----------------------------||
-----------------------------||
------------8h-10h-12--------||
--11-------------------------||
-----------------------------||
-----------------------------||





                                                   BASS


     W                   H.           Q       H.           S S S S     W                   H        H
G||-------------------|--------------------|-----------------------|--------------------|--------------------|
D||-------------------|--------------------|-----------------------|--------------------|--6-----------------|
A||--8----------------|--9-----------------|--6------------L-7-8-9-|--10----------------|-----------8-------\|
E||-------------------|---------------9----|-----------------------|--------------------|--------------------|


  E  E  E  S S Q    S S S S    E  E  S S S S E  E  S S S S    E  E  E  E  E  E  E  E
----------------------------|------------------------------|--------------------------|
----------------------3-----|------------------------1---3-|--4--4--4--4--4--4--4--4--|  <-- long, short rhythm
--1--1-----1-1------1---1-3-|--4--4----4-4-4----4--L---4---|--------------------------|   every other note is
----------------------------|------------------------------|--------------------------|      staccato

                           ** song repeats back to here
  E  E  E  E  E  E  E  E     E  E  E  E  E  E  E  E     E  E  E  E  E  E  E  E     E  E  E  E  E  E  E  E
--2--2--2--2--2--2--2--2--|--3--3--3--3--3--3--3--3--|--4--4--4--4--4--4--4--4--|--5--5--5--5--5--5--5--5--|
--------------------------|--------------------------|--------------------------|--------------------------|
--------------------------|--------------------------|--------------------------|--------------------------|
--------------------------|--------------------------|--------------------------|--------------------------|


  E  E  E  E  E  E  E  E     E  E  E  S S Q    S S S S    E  E  E  E  E  E  S S S S
--------------------------|--3--3-----3-3--------3-L-5-|--6--6-----6----------------|
--3--3--3--3--3--3--3--3--|----------------------------|----------------------6---3-|
--------------------------|----------------------------|-----------------4--L---4---|
--------------------------|----------------------------|----------------------------|


  E  E  S S S S S S E  S S S S    E  E  S S S S S S E  S S S S    E  E  E  E  E  E  E  E
-------------------------------|--2--2----2---2---2-2----2---2-|--3--3--3--3--3--3--3--3--|
--4--4----4-L-4---4-4----4---4-|-------------------------------|--------------------------|  <-- long short 
-------------------------------|-------------------------------|--------------------------|      rhythm again
-------------------------------|-------------------------------|--------------------------|


  E  E  E  E  E  E  E  E     E  E  E  E  E  E  E  E     E  E  E  E  E  E  E  E     E  E  E  S S E  E  S S E
--4--4--4--4--4--4--4--4--|--5--5--5--5--5--5--5--5--|--------------------------|--3--3-----3-3----3--3-3----|
--------------------------|--------------------------|--3--3--3--3--3--3--3--3--|----------------------------|
--------------------------|--------------------------|--------------------------|----------------------------|
--------------------------|--------------------------|--------------------------|----------------------------|


  E  E  E  S S E  S S S S S S    E  E  E  S S E  E  S S E     E  E  E  S S E  S S S S S S
--3--3-----3-3----2-3---5-2-5-|--3--3-----3-3----3--3-3----|--3--3-----3-3----2-3---2-5---|
------------------------------|----------------------------|----------------------------3-|
------------------------------|----------------------------|------------------------------|
------------------------------|----------------------------|------------------------------|


  S S S S E  S S E  S S S S S S    S S S S E  S S S S S S S S S S    S S S S S S S S S S S S S S S S
--------------------------------|-----------------------------2---|------------3---------------------|
--------------------------------|---------------------------------|----------------------------------|
--1-1-4-1----1-1----4-1-1-4---4-|--1-1-4-4----1-1-4-1-1-4-1-4---3-|--1-1-4-1-L---1-1-L---4-1-1-4---4-|
--------------------------------|---------------------------------|----------------------------------|


  S S S S S S S S S S S S S S S S    E  E  S S S S S S S S S S S S    E  E  S S S S S S S S S S S S
----------------------------------|------------------3---1-L-------|----------1-----------1---------|
----------------------------------|----------3---------3-----1-----|------------------1-------1-3---|
--1-1-4-4-L---1-1-4-1-3-4-0-------|--1--1------1-1-------------1-3-|--4--4------4-4-----4---------4-|
----------------------------4-3-1-|--------------------------------|--------------------------------|


  E  E  S S S S S S S S S S S S    E  E  S S S S S S S S S S S S
--------------------1---------1-|--2--2----2---2---2-2-2---2---2-||
--4--4----4-4-4---4---4-----4---|------------2-------------------||
--------------------------4-----|--------------------------------||
--------------------------------|--------------------------------||




Login or Register to remove this ad.

2 comments on Successor of Fate

Awesome auri

5

Awesome auri

you did it! :D:D:D:D:D

5

you did it! :D:D:D:D:D