Ads

Pitch Black Intrusion (Castlevania: Dawn of Sorrow) Guitar Tab

Submitted: Sep 04, 2021 by Omnicide (Last updated: Sep 05, 2021)

5
Average: 5 (4 votes)
Download | Listen
Game: Castlevania: Dawn of Sorrow
Composer(s): Michiru Yamane
Style: Arrangement, Fingerstyle
Series: Castlevania

This song is also called Pitch Black Attack

AutoScroll: Slow | Medium | Fast
Pitch Black Intrusion          
Castlevania: Dawn of Sorrow
Composed by Masahiko Kimura
Arranged by William Geesdorf


      E  E  E  E  E  E  E   E      E  E  E  E  E  E  E   E    
E||-----------------------------|----------------------------|
B||---------------------0-------|--------1-----0-----3-------|
G||*--------2-----1-------------|--2--------------1-----(1)--|
D||*-----2-----2-----2-----(2)--|-----2-----2----------------|
A||---0-------------------------|--0-------------------------|
E||-----------------------------|----------------------------|


  E  E  E  E  E  E  E   E      E  E  E  E  E  E  E   E    
--------0-----1-------------|--0-------------------------|
--1-----------------3-------|--------1-----3-----0-------|
-----2-----2-----1-----(1)--|-----2-----2-----0-----(0)--|
----------------------------|----------------------------|
--0-------------------------|--0-------------------------|
----------------------------|--------------3-------------|


  E  E  E  E  E  E  E   E      E  E  E  E  E  E  E   E    
----------------------------|----------------------------|
--------------------0-------|--------1-----0-------------|
--------2-----1-------------|--2-----------------0-------|
-----2-----2-----2-----(2)--|-----2-----2-----0-----(0)--|
--0-------------------------|--0-------------------------|
----------------------------|--------------3-------------|


  E  E  E  Q    E  E  E     E  E  E  Q    E  E  E     E  E  E  Q.     E  E   
-------------------------|-------------------------|-----------3------5--2--|
-------------------------|--0--------0-------------|-----0--1---------------|
--2--------2-------------|--------0-------0--------|--2---------------------|
--------3-------3--------|-----0-------------0-----|------------------------|
-----3-------------3--0--|----------------------2--|--0---------------------|
--1----------------------|--3----------------------|------------------------|


  E  E  E  Q.     Q       E  E  E  Q    E  Q       E  E  E  Q    Q.      
------------------0----|--1--------0------------|-----------0-----------|
-----------3-----------|--------0-------0-------|--4-----0-------0------|
--------2--------------|-----1-------------1----|-----------------------|
-----4-----------------|------------------------|-----2-----------------|
--0--------------------|--2---------------------|-----------------------|
-----------------------|------------------------|--0--------------------|


  E  E  E  Q.     E  E     E  E  E  Q.     Q       E  E  E  E  E  E  Q     
-----------3------5--2--|------------------0----|--1-----0-----5-----7----|
-----0--1---------------|-----------3-----------|-----0-----0-----0-------|
--2---------------------|--------2--------------|-------------------------|
------------------------|-----4-----------------|-------------------------|
--0---------------------|--0--------------------|--2----------------------|
------------------------|-----------------------|-------------------------|


  E  E  E  E  E  E  Q       E  E  E  Q.     E  E     E  E  E  Q.     Q     
--5-----4-----0----------|-----------3------5--2--|------------------0----|
-----0-----0-----0-------|-----0--1---------------|-----------3-----------|
-------------------------|--2---------------------|--------2--------------|
-------------------------|------------------------|-----4-----------------|
-------------------------|--0---------------------|--0--------------------|
--0-----------------4----|------------------------|-----------------------|


  E  E  E  Q    E  Q       E  E  E  Q    E  Q       E  E  E  Q.     E  E   
--1--------0------------|-----------0------------|-----------3------5--2--|
--------0-------0-------|--4-----0-------0-------|-----0--1---------------|
-----1-------------1----|------------------------|--2---------------------|
------------------------|-----2------------------|------------------------|
--2---------------------|------------------------|--0---------------------|
------------------------|--0----------------4----|------------------------|


  E  E  E  Q.     Q       E  E  E  E  E  E   Q       E  E  E  E  E  E  Q     
------------------0----|--1-----0-----8-----10----|--8-----7-----4-----0----|
-----------3-----------|-----0-----0-----0--------|-----0-----0-----0-------|
--------2--------------|--------------------------|-------------------------|
-----4-----------------|--------------------------|-------------------------|
--0--------------------|--2-----------------------|-------------------------|
-----------------------|--------------------------|--0----------------------|


  E  E  E  E  Q    Q       E  E  E  Q    E  Q       E  E  E  E  Q    Q     
-----------0--1---------|------------------------|--------------0---------|
--3-----3----------3----|--0---------------------|--1--------3-------1----|
-----2------------------|-----------1------------|--------2---------------|
------------------------|--------2-------2-------|-----2------------------|
--2---------------------|-----2-------------2----|--0---------------------|
------------------------|--0---------------------|------------------------|


  E  E  E  E  Q    Q       E  E  E  E  Q    Q       Q    Q    Q    Q     
--------------0---------|------------------------|----------------------|
--------1---------------|--------------1---------|----------------------|
--2----------------2----|--2--------2-------2----|--0-------------------|
-----0-----0------------|--------3---------------|-------2---------2----|
------------------------|-----3------------------|--3---------3---------|
--3---------------------|--1---------------------|----------------------|


  H        H           E  E  E  Q.     Q       E  E  E  Q.     E  E   
--------------------|-----------------------|-----------3------5--2--|
--3-----------------|--0--------------------|-----0--1---------------|
-----------2--------|-----------1-----------|--2---------------------|
--0-----------------|--------2--------------|------------------------|
--------------------|-----2-----------------|--0---------------------|
--------------------|--0---------------4----|------------------------|


  E  E  E  Q.     Q       E  E  E  Q    E  Q       E  E  E  Q    E  Q     
------------------0----|--1--------0------------|-----------0------------|
-----------3-----------|--------0-------0-------|--4-----0-------0-------|
--------2--------------|-----1-------------1----|------------------------|
-----4-----------------|------------------------|-----2------------------|
--0--------------------|--2---------------------|------------------------|
-----------------------|------------------------|--0----------------4----|


  E  E  E  Q.     E  E     E  E  E  Q.     Q       E  E  E  E  E  E   Q     
-----------3------5--2--|------------------0----|--1-----0-----8-----10----|
-----0--1---------------|-----------3-----------|-----0-----0-----0--------|
--2---------------------|--------2--------------|--------------------------|
------------------------|-----4-----------------|--------------------------|
--0---------------------|--0--------------------|--2-----------------------|
------------------------|-----------------------|--------------------------|


                                                      ^                 
  E  E  E  E  E  E  Q       S  S Q    E  Q    Q       W                 
--8-----7-----4-----0----|--0----0----0-------0----|--2----------------|
-----0-----0-----0-------|--1p-0-1----1--4---------|--1----------------|
-------------------------|---------------2----2----|--2----------------|
-------------------------|-------------------------|-------------------|
-------------------------|--0----------------------|-------------------|
--0----------------------|-------------------------|-------------------|


                            ^                     ^                 
  S  S Q    E  Q    Q       W                     W                 
--0----0----0-------0----|--2-----------------||--0----------------|
--1p-0-1----1--4---------|--1-----------------||--1----------------|
---------------2----2----|--2----------------*||--2----------------|
-------------------------|-------------------*||--2----------------|
--0----------------------|--------------------||--0----------------|
-------------------------|--------------------||-------------------|


  W                  
--L----------------||
--L----------------||
--L----------------||
--L----------------||
--L----------------||
-------------------||




Duration Legend
---------------
W - whole
H - half
Q - quarter
E - 8th
S - 16th
T - 32nd
X - 64th
. - note dotted
|-n-|  - n-tuplets


Tablature Legend
----------------
L - tied note
(n) - ghost note
p - pull off
^ - brush up
Login or Register to remove this ad.

1 comment on Pitch Black Intrusion

() is supposed to be more

() is supposed to be more about optional notes than ghost notes but you can play it both ways.