Awake (Castlevania: Circle of The Moon) Bass/Guitar Tab

Submitted: Jun 02, 2010 by RexLeRouge (Last updated: Jun 02, 2010)

5
Average: 5 (2 votes)
Download | Listen
Game: Castlevania: Circle of The Moon
Composer(s): Konami Kukeiha Club
Style: 2 or more instruments, Transcription
Series: Castlevania

AutoScroll: Slow | Medium | Fast
                                    Awake                                       


Mélodie
      E   S  E   S  Q     E  E   S  S     S  S  S  S S  S  E  Q    Q     
E||--12--10-----12-10-----------------|---------------------------------|
B||---------13-----------10-----10-12-|--13-12-10-12-L----10--L---------|
G||-----------------------------------|----------------12---------------|
D||-----------------------------------|---------------------------------|
A||-----------------------------------|---------------------------------|
E||-----------------------------------|---------------------------------|


   E   S  E   S  Q     E  E   S  S     S  S  S  S S  S  E  Q    Q     
--12--10-----12-10-----------------|---------------------------------|
---------13-----------10-----10-12-|--13-12-10-12-L----10--L---------|
-----------------------------------|----------------12---------------|
-----------------------------------|---------------------------------|
-----------------------------------|---------------------------------|
-----------------------------------|---------------------------------|


    E    E    E     E    E    E     E    E    
---------------------------------------------|
--(10)------------(10)------------(10)-------|
--------(9)-------------(9)-------------(8)--|
-------------(7)-------------(7)-------------|
---------------------------------------------|
---------------------------------------------|


   E     E    E    E     E    E     E    E    
---------------------------------------------|
-------(10)------------(10)------------------|
-------------(8)-------------(8)-------------|
--(7)-------------(7)-------------(10)--(7)--|
---------------------------------------------|
---------------------------------------------|


    E    E    E     E    E    E     E    E    
---------------------------------------------|
--(10)------------(10)------------(10)-------|
--------(9)-------------(9)-------------(9)--|
-------------(7)-------------(7)-------------|
---------------------------------------------|
---------------------------------------------|

                                           Segno
   E    E    E    E    E    E    E    E       Q     Q     E.   E.   E   
------------------------------------------|--12----------14---15---12--|
-------(9)------------(9)-----------------|--------10------------------|
------------(9)------------(9)------------|----------------------------|
--(9)------------(9)------------(9)--(6)--|----------------------------|
------------------------------------------|----------------------------|
------------------------------------------|----------------------------|


   Q     Q     E.   S E   S  S     E.   E.   E   E.   E.   E   
--14----12----10---------------|-------10---12--10------------|
-------------------10-L--10-12-|--13-----------------13---12--|
-------------------------------|------------------------------|
-------------------------------|------------------------------|
-------------------------------|------------------------------|
-------------------------------|------------------------------|


   H.           Q        Q     Q     E.   E.   E      Q     Q     E.   E.   E   
---------------------|--12----------14---15---12--|--14----------20---19---16--|
--10-----------------|--------10------------------|--------15------------------|
---------------------|----------------------------|----------------------------|
---------------------|----------------------------|----------------------------|
---------------------|----------------------------|----------------------------|
---------------------|----------------------------|----------------------------|


   Q.      S  S  E.   E.   E      H.           E   S  S  
--17------17-16------16---17--|--19------------------10-|
----------------19------------|-------------------13----|
------------------------------|-------------------------|
------------------------------|-------------------------|
------------------------------|-------------------------|
------------------------------|-------------------------|


   Q     Q     E.   E.   E      Q     Q     E.   S E   S  S  
--12----------14---15---12--|--14----12----10---------------|
--------10------------------|-------------------10-L--10-12-|
----------------------------|-------------------------------|
----------------------------|-------------------------------|
----------------------------|-------------------------------|
----------------------------|-------------------------------|


   E.   E.   E   E.   E.   E      H.           Q     
-------10---12--10------------|---------------------|
--13-----------------13---12--|--10-----------------|
------------------------------|---------------------|
------------------------------|---------------------|
------------------------------|---------------------|
------------------------------|---------------------|


   Q     Q     E.   E.   E      Q     Q     E.   E.   E   
--12----------14---15---12--|--14----------20---19---16--|
--------10------------------|--------15------------------|
----------------------------|----------------------------|
----------------------------|----------------------------|
----------------------------|----------------------------|
----------------------------|----------------------------|


   Q.      S  S  E.   E.   E      H         Q     Q        W                 
--17------17-16------16---17--|--19--------20----22----|--19----------------|
----------------19------------|------------------------|--------------------|
------------------------------|------------------------|--------------------|
------------------------------|------------------------|--------------------|
------------------------------|------------------------|--------------------|
------------------------------|------------------------|--------------------|


  W                    E.   E.   E   H            E.   E.   E   Q.      S  S  
-------------------|--13---12---10------------|--13---12---10----------------|
-------------------|----------------10--------|----------------12------10-12-|
-------------------|--------------------------|------------------------------|
-------------------|--------------------------|------------------------------|
-------------------|--------------------------|------------------------------|
-------------------|--------------------------|------------------------------|


   Q.      S  S  Q    S  S  S  S     W                 
----------------10----L-------10-|--12----------------|
--13------12-13------------13----|--------------------|
------------------------12-------|--------------------|
---------------------------------|--------------------|
---------------------------------|--------------------|
---------------------------------|--------------------|


   E.   E.   E   H            E.   E.   E   Q.      S  S  
--13---12---10------------|--13---12---10----------------|
----------------10--------|----------------12------10-12-|
--------------------------|------------------------------|
--------------------------|------------------------------|
--------------------------|------------------------------|
--------------------------|------------------------------|


   E.   E.   E   E.   E.   E      E.   E.   E   E.   E.   E   
----------------10--------10--|--12---10---12--14---12---14--|
--13---12---13-------13-------|------------------------------|
------------------------------|------------------------------|
------------------------------|------------------------------|
------------------------------|------------------------------|
------------------------------|------------------------------|


   W                   W                    E   S  E   S  Q     E  E   S  S  
--16----------------|-------------------|--12--10-----12-10-----------------|
--------------------|-------------------|---------13-----------10-----10-12-|
--------------------|-------------------|-----------------------------------|
--------------------|-------------------|-----------------------------------|
--------------------|-------------------|-----------------------------------|
--------------------|-------------------|-----------------------------------|


   S  S  S  S S  S  E  Q    Q        E   S  E   S  Q     E  E   S  S  
---------------------------------|--12--10-----12-10-----------------|
--13-12-10-12-L----10--L---------|---------13-----------10-----10-12-|
----------------12---------------|-----------------------------------|
---------------------------------|-----------------------------------|
---------------------------------|-----------------------------------|
---------------------------------|-----------------------------------|


   S  S  S  S S  S  E  Q    Q        E   S  E   S  Q     E  E   S  S  
---------------------------------|--12--10-----12-14----10-----10-12-|
--13-12-10-12-L----10--L---------|---------13------------------------|
----------------12---------------|-----------------------------------|
---------------------------------|-----------------------------------|
---------------------------------|-----------------------------------|
---------------------------------|-----------------------------------|


   S  S  S  S S  S  E  Q    Q        E   S  E   S  Q     E  E   S  S  
--13-12-10-12-L-15-12--L---------|--12--10-----12-10-----------------|
---------------------------------|---------13-----------10-----10-12-|
---------------------------------|-----------------------------------|
---------------------------------|-----------------------------------|
---------------------------------|-----------------------------------|
---------------------------------|-----------------------------------|

                          da Segno
   S  S  S  S S  S  E  Q    Q      
---------------------------------||
--13-12-10-12-L----10--L---------||
----------------12---------------||
---------------------------------||
---------------------------------||
---------------------------------||



Basse
     W                   W                   E  S E  S Q    E  E  S S  
G||-------------------|-------------------|---------------------------|
D||-------------------|-------------------|--7----5----4--------------|
A||-------------------|-------------------|-----7----7------5-----5-7-|
E||-------------------|-------------------|---------------------------|


  E  S E  S Q.     Q       W                   W                 
------------------------|-------------------|-------------------|
-------5----7------L----|-------------------|-------------------|
--8--5----5-------------|-------------------|-------------------|
------------------------|-------------------|-------------------|

                                             Segno
  W                   H        E  S S Q        Q    Q    E.  E.  E   
-------------------|------------------------|-----------------------|
-------------------|------------------------|-----------------------|
-------------------|--------------7-7-7\----|-----------------------|
-------------------|------------------------|--5----5----5---5---5--|


  Q    Q    E.  E.  E     Q    Q    Q    Q       Q    Q    Q    Q     
-----------------------|----------------------|----------------------|
-----------------------|------------5----5----|----------------------|
--5----5----5---5---7--|--5----5--------------|------------5----5----|
-----------------------|----------------------|--5----5--------------|


  Q    Q    E.  E.  E     Q    Q    E.  E.  E     Q    Q    Q    Q     
-----------------------|-----------------------|----------------------|
-----------------------|-----------------------|----------------------|
-----------------------|--5----5----5---5---5--|--6----6--------------|
--5----5----5---5---5--|-----------------------|------------7----7----|


  Q    Q    Q    Q       Q    Q    E.  E.  E     Q    Q    E.  E.  E   
----------------------|-----------------------|-----------------------|
----------------------|-----------------------|-----------------------|
--7----7----7----7----|-----------------------|--5----5----5---5---7--|
----------------------|--5----5----5---5---5--|-----------------------|


  Q    Q    Q    Q       Q    Q    Q    Q       Q    Q    E.  E.  E   
----------------------|----------------------|-----------------------|
------------5----5----|----------------------|-----------------------|
--5----5--------------|------------5----5----|-----------------------|
----------------------|--5----5--------------|--5----5----5---5---5--|


  Q    Q    E.  E.  E     Q    Q    Q    Q       Q    Q    Q    Q     
-----------------------|----------------------|----------------------|
-----------------------|----------------------|----------------------|
--5----5----5---5---5--|--6----6--------------|--7----7----5----5----|
-----------------------|------------7----7----|----------------------|


  Q    Q    Q    Q       Q    Q    Q    Q       Q    Q    Q    Q     
----------------------|----------------------|----------------------|
----------------------|----------------------|----------------------|
--7----7----7----7----|--7----7----7----7----|--5----5----5----5----|
----------------------|----------------------|----------------------|


  Q    Q    Q    Q       Q    Q    Q    Q       Q    Q    Q    Q     
----------------------|----------------------|----------------------|
----------------------|----------------------|----------------------|
--7----7----7----7----|----------------------|----------------------|
----------------------|--5----5----4----4----|--3----3----5----5----|


  Q    Q    Q    Q       Q    Q    Q    Q       Q    Q    Q    Q     
----------------------|----------------------|----------------------|
----------------------|----------------------|----------------------|
--8----8----8----8----|--7----7--------------|----------------------|
----------------------|------------7----7----|--5----5----3----3----|


  Q    Q    Q    Q       Q    Q    Q    Q       Q    Q    Q    Q     
----------------------|----------------------|----------------------|
----------------------|--2----2----2----2----|----------------------|
--3----3----2----2----|----------------------|----------------------|
----------------------|----------------------|--0----0----4----4----|


  E  S E  S Q    E  E  S S    E  S E  S Q.     Q     
---------------------------|------------------------|
--7----5----4--------------|-------5----7-----------|
-----7----7------5-----5-7-|--8--5----5-------------|
---------------------------|------------------------|


  E  S E  S Q    E  E  S S    E  S E  S Q    E.  E.   
---------------------------|-------------------------|
--7----5----4--------------|-------5----7--------5---|
-----7----7------5-----5-7-|--8--5----5------7-------|
---------------------------|-------------------------|


  E  S E  S Q    E  E  S S    E  S E  S Q.     Q     
---------------------------|------------------------|
--7----5----4--------------|-------5----7-----------|
-----7----7------5-----5-7-|--8--5----5-------------|
---------------------------|------------------------|

                                             da Segno
  E  S E  S Q    E  E  S S    E  S E  S Q    E.  E.    
---------------------------|-------------------------||
--7----5----4--------------|-------5----7------------||
-----7----7------5-----5-7-|--8--5----5------5---7---||
---------------------------|-------------------------||



Duration Legend
---------------
W - whole
H - half
Q - quarter
E - 8th
S - 16th
T - 32nd
X - 64th
. - note dotted
|-n-|  - n-tuplets


Tablature Legend
----------------
L - tied note
x - dead note
g - grace note
(n) - ghost note
> - accentuded note
NH - natural harmonic
AH - artificial harmonic
TH - tapped harmonic
SH - semi harmonic
PH - pitch harmonic
h - hammer on
p - pull off
b - bend
br - bendRelease
pb - preBend
pbr - preBendRelease
brb - bendReleaseBend
\n/ - tremolo bar dip
\n - tremolo bar dive
-/n - tremolo bar Release up
/n\ - tremolo bar inverted dip
/n - tremolo bar return
-\n - tremolo bar Release down
S - shift slide
s - legato slide
/ -  slide into from below or out of upwards
\ -  slide into from above or out of downwards
~ - vibrato
W - wide vibrato
tr - trill
TP - tremolo picking
T - tapping
S - slap
P - pop
< - fade in
^ - brush up
v - brush down
Login or Register to remove this ad.

4 comments on Awake

This is a good bass tab!! :-)

5

This is a good bass tab!! I love CoTM.

I think in measure 37, the last two notes should be moved down a string, like this:

     Q    Q    Q    Q
G |----------------------
D |----------------------
A |--7----7--------------
E |------------7----7----

And measure 40 should have two more notes at the end, the same rhythm as measure 44, but
differe notes, like this:

  E  S E  S Q    E.  E.    
-------------------------
-------5----7--------5---
--8--5----5------7-------
-------------------------

I'm sure it's a good guitar tab too, I just haven't tried the guitar part yet :-)

Thx auri, glad you like it

Thx auri, glad you like it :)

its on measure 32 (not 37). Thx a lot for the corrections, i'm gonna fix that. :)

Oops, I guess I counted wrong

Oops, I guess I counted wrong xD

Wish I had a guitar with 22

Wish I had a guitar with 22 frets.