Vampire Killer (Castlevania: Circle of The Moon) Bass/Guitar Tab

Submitted: Oct 11, 2013 by suddenimpact711

5
Average: 5 (2 votes)
Download | Listen
Game: Castlevania: Circle of The Moon
Composer(s): Konami Kukeiha Club
Style: 2 or more instruments, Transcription
Series: Castlevania

This song is also called Observation Tower

AutoScroll: Slow | Medium | Fast
Vampire Killer (Observatory Theme)
  Castlevania: Circle of the Moon

Composer: Konami Kukeiha Club 
Tabbed by: suddenimpact711

Gtr I (E A D G B E) - 'Guitar'
Gtr II (E A D G) - 'Bass'

  Q=120
 4/4
  Gtr I
   s  e    e    Q.          E    S  S  S    E.    E.      E    S  Q        +E.
|----------------------------------------|-----------------------------------------|
|----------------------------------------|-----------------------------------------|
|-13-13----------------------------------|-----------------------------------------|
|---------16---15---------------------11-|-13------------13---11-16-------(16)-----|
|--------------------------11---13-14----|-------11--------------------------------|
|----------------------------------------|-----------------------------------------|
|
| Gtr II
|  e    S  S e     S e S S  S e     S  S    e  S  S  s S  S S  S  S S S S   S  S S
|----------------------------------------|-----------------------------------------|
|------------6---------6------6-----4--6-|-----------2---------4--------4----------|
|----------------------------------------|-----------------------------------------|
|--4----4--4-------4-4---4--4------------|--0--0--0-------0-2-------2-2--------2-2-|


   s  e    e    Q.          E    S  S  S    E.    E.      E    S  Q        +E.
|----------------------------------------|-----------------------------------------|
|----------------------------------------|-----------------------------------------|
|-13-13----------------------------------|-----------------------------------------|
|---------16---15---------------------11-|-13------------13---11-------------------|
|--------------------------11---13-14----|-------11--------------------------------|
|----------------------------------------|-----------------------14-------(14)-----|
|
|  e    S  S e     S e S S  S e     S  S    e  S  S  s S  S S  S  S S S S   S  S S
|----------------------------------------|-----------------------------------------|
|------------6---------6------6-----4--6-|-----------2---------4--------4----------|
|----------------------------------------|----------------------------------4--1---|
|--4----4--4-------4-4---4--4------------|--0--0--0-------0-2-------2-2----------2-|


  E    S E    S E  S  S  S  Q     S    S E    S E    S S  S E    S E    S S
|-----------------------------------|---------------------------------------|
|-----------------------------------|-16-----15-----14---16-----15-----14---|
|-----------------------------------|---------------------------------------|
|------------13---12-13-12-13-------|---------------------------------------|
|-----11----------------------------|---------------------------------------|
|-----------------------------------|---------------------------------------|
|
| S E    S E    e  S  S  S  S e S S    e   S  e   e    e    s S  e   S  e
|-----------------------------------|-----------------------1-4------4------|
|---------------------6-------6-----|--2---2--2---2----2---------2------2---|
|-----------------------------------|---------------------------------------|
|-4------4------4--4-----4--4---4-4-|---------------------------------------|


  E    S E    S E  S  S  S  Q     S    S E    S E    S S  S E    S E    S S
|-----------------------------------|-----------------------------------------|
|-----------------------------------|-16-----15-----14---16-----15-----14-----|
|-----------------------------------|-----------------------------------------|
|------------13---12-13-12-13-------|-----------------------------------------|
|-----11----------------------------|-----------------------------------------|
|-----------------------------------|-----------------------------------------|
|
| S E    S E    e  S  S  S  S e S S    e   S  e   e    e    s S  e   S  e
|-----------------------------------|-----------------------1-4------4--------|
|---------------------6-------6-----|--2---2--2---2----2---------2------2-----|
|-----------------------------------|-----------------------------------------|
|-4------4------4--4-----4--4---4-4-|-----------------------------------------|


  E. E. E E. E. E    E. E. E E. E.       E
|------------------|--------------------------|
|-------5----------|-------5------------------|
|---------8--------|---------8----------------|
|-5--8-------9--6--|-5--8-------6-------------|
|------------------|--------------------------|
|------------------|--------------------------|
|
| H       H          H       Q     +S  S S. T
|------------------|--------------------------|
|------------------|--------------------------|
|------------------|--------------------------|
|-3-------4--------|-6-------7-----(7)-4-6--7-|


  E. E. E E. E. E    E.  E.    E  E.      E.      E
|------------------|-----------------------------15----|
|-------5----------|-------------16------18------------|
|---------8--------|-----------------------------------|
|-5--8-------9--6--|-8--11----14-----------------------|
|------------------|-----------------------------------|
|------------------|-----------------------------------|
| Tricky Fingering ^ 1   1    1  3        4       2
| H       H          Q      Q     S  S S  S  S E    S
|------------------|-----------------------------------|
|------------------|-----------------------------------|
|------------------|-4------7-----6----------6-4-------|
|-9-------7--------|-------------------0---------------|


   S S  S  S S  S  S S  S Q     E.        E  E  S  E.  E  E  S  E.
|-16---16-16---16------16--------------|-------16-19--------18-21--|
|-16---16-16---16-14---16--------------|-17-17--------19-19--------|
|--------------------------------------|---------------------------|
|--------------------------------------|---------------------------|
|--------------------------------------|---------------------------|
|--------------------------------------|---------------------------|
| 3     3  3    3  1    3   - natural harmonic
[n]  - artificial harmonic
n(n) - tapped harmonic
 ~   - vibrato
 tr  - trill
 T   - tap
 TP  - trem. picking
 PM  - palm muting
\n/  - tremolo bar dip; n = amount to dip
 \n  - tremolo bar down
 n/  - tremolo bar up
/n\  - tremolo bar inverted dip
 =   - hold bend; also acts as connecting device for hammers/pulls
 <>  - volume swell (louder/softer)
 x   - on rhythm slash represents muted slash
 o   - on rhythm slash represents single note slash

Misc Legend
-----------
 |  - bar
||  - double bar
||o - repeat start
o|| - repeat end
*|  - double bar (ending)
 :  - bar (freetime)
 $  - Segno
 &  - Coda
Tempo markers -  = BPM(8/16=s8/s16), where s8 = swing 8ths, s16 = swing 16ths


***************************************************************************************
* Generated using Power Tab Editor by Brad Larsen - http://powertab.guitarnetwork.org *
***************************************************************************************
Login or Register to remove this ad.

1 comment on Vampire Killer

Nice

5

Nice job, I remember playing this game when I was in middle school haha. Nice job on the bass tab too ^^