Study (Castlevania: Aria of Sorrow) Guitar Tab

Submitted: Mar 17, 2017 by GomiNoUmi

5
Average: 5 (1 vote)
Download | Listen
Game: Castlevania: Aria of Sorrow
Composer(s): Michiru Yamane
Style: Arrangement, Fingerstyle
Series: Castlevania

AutoScroll: Slow | Medium | Fast
Title: Study
Composer: Michiru Yamane
Game: Castlevania: Aria of Sorrow
Song: https://www.youtube.com/watch?v=cavfTuPV3bI
Arrangement by: GomiNoUmi
Made: 8.3.2017

Standard tuning 
Rhythm 4/4

Tempo and note lengths stay simple throughout the song. I really wanted to capture the bassline and higher melody together
because that's what makes the song in my opinion so it might be a bit hard to play but definitely possible with enough practice.


E|-------------------------8---10--|-12----------10--9-------11---|-------------------------------------------7---|
B|-8-----------10--12--------------|-----10-----------------------|-------------7-----8--10-8--7-----8--7---------|
G|-----9-------7-------------------|-------------12------11--8----|-9-----------------------------9---------------|
D|---------------------10--9-------|------------------------------|-------9--------------------------------9------|
A|-7-------5-----------------------|-0-------10------9-------9----|-7-----------------------7---------------------|
E|-----------------8-----------7---|-------------------------7----|-------------------7-----------------------7---|


E|----------7--------------------------------7-----|-------7-----8-----------------------7-----------|
B|----10-8-----10-8--7--10-8--7-----8--7-----------|-------------------------10----------------------|
G|-------------------------------9-----------------|----------------4--5-----------------------4-----|
D|----------------------------------------9--5--7--|-5-----------7--------7--------------5--7-----5--|
A|-7-----------------------7-----------9-----------|----7--6--7--------------9--7-----9--------------|
E|-------------------7-----------7-----------------|-------------------------------10----------------|


E|-------------------------------------------------|-------------------------------------------10----|
B|-8-----------10----------8--7-----8--7--10-11-13-|-11----------10----11-13-11-10----11-10----------|
G|-------------------------------9-----7-----------|-------------------------------12----------------|
D|-------------------7-----8-----7-----------------|-------12-------------------------------12-------|
A|-7--5-----7--9--10----9--------------------------|-10----------9-----------10----------------9-----|
E|-------8-----------------------------------10----|-------------------10----------------------------|


E|-10-------10-------------------------------10----|-------------11-10-------------------10-8--6-----|
B|----13-11----13-11-10-13-11-10----11-10-------13-|-11----------------13-11-10-------------------10-|
G|-------------------------------12----------------|----12-11-12-------------10-10-9--10-------7-----|
D|----------------------------------------12-8--10-|-12----------10----13----------------8-----------|
A|-10----------------------10----------12----------|-------10----------------------8-----------------|
E|-------------------10----------10----------------|-------------------------------------------------|


E|----------------------------------------------------|-------------------------------------------------|
B|-8-----------13-11-10----10-------------------------|-------------------------------------------------|
G|----8--7--8-----------12----12-9--11----------------|-------7-----------7-----8-----------------------|
D|----------------------------------------------12----|-5-----------------4--5--6-----------6-----------|
A|-6-----------12----10-------------------------------|----------3--5--7-----------6-----6-----------6--|
E|-------6-----------------12-------9-----10----10----|-3--5--6-----------------------7-----4--6--7-----|


E|-------------------------------------------------|-------------------------------------------------|
B|-------------------------------------------------|-------------------------------------------------|
G|-------9-----------9-----10----------------------|-------11----------11----12----------------------|
D|-7-----------------------------------8-----------|-9-----------------8--9--10----------10----------|
A|-------------------------------------------------|----------7--9--11----------10----10----------10-|
E|-8--7--5--7--8--7--5--8--9--8--6--8--9--8--9--6--|-7--9--10----------------------11----8--10-11----|


E|--------------------------------------|-------------------------9-----------11----12-14-|
B|---------------------------------9----|-------------------5--7--------9-----------9-----|
G|-------------9--------6--5------------|-------------8-----------9--8-----9--8-----------|
D|-11----6-----------6---------6--------|-11----------------------------11----------------|
A|----------------7---------------------|-------11-------------------------------11-------|
E|-9--8--6--8--9-----------4------------|-9-----------------4-----9-----------------11----|


E|-12-11-9--12-11----------------------------------|-------------------------------------------------|
B|----------9-----9--9-----------------------9-----|----------------9--10----------------------9-----|
G|----11-9-----11-9--8--11-9--8--6--9--8--------11-|-10-8-----10-11-------11-8--------8--9--11----9--|
D|-------------------------------------10----------|-------11-------------------11-9-----------------|
A|----------------------------------------11-------|-------8-----------9-----------6-----------7-----|
E|-9-----------------8-----9-----4-----11----12-11-|-9-----------------------7-----------------------|


E|-------------------------------------------------|-------------------------------------------7---|
B|-------------------7--------------------7--8--10-|-8-----------7-----8--10-8--7-----8--7---------|
G|-6--------6--8--9-----8--9--8--6--9--8-----------|-9-----------8-----------------9---------------|
D|----9--7-----------------------------------------|-------9--------------------------------9------|
A|-------4-----------6-----7-----6-----9-----------|-------------------9-----7---------------------|
E|-5-----------------------------------------7-----|-------------------------------------------7---|


E|----------7--------------------------------7-----|-------------8--7--------------------7--5--3-----|
B|----10-8-----10-8--7--10-8--7-----8--7--------10-|-8-----------------10-8--7--------------------7--|
G|-------------------------------9-----------------|----9--8--9--------------7--7--6--7--------4-----|
D|----------------------------------------9--5--7--|-9-----------7-----10----------------5-----------|
A|-7-----------------------7-----------9-----------|-------7-----------------------5-----------------|
E|-------------------7-----------7-----------------|-------------------------------------------------|


E|----------------------------------------------------|-0-----------0----------0-2-----------------2-----|
B|-5-----------10-8--7-----7--------------------------|--------------------------------------------------|
G|----5--4--5-----------9-----9--6--8-----------------|--------------------------------------------------|
D|----------------------------------------------9-----|----------2-----------2------------4-----------4--|
A|-3-----------9-----7--------------------------------|-------2-----------2------------4-----------4-----|
E|-------3-----------------9--------6-----7-----7-----|-0--3--------0--3---------2--6--------2--6--------|


E|-3-----6-----3-----0-----6-----------------6-----|-7-----------------7----6-7-----------------------|
B|-------------------------------------------------|--------------------------------------------------|
G|-------------------------------------------------|--------------------------------------------------|
D|----------2-----------2-----------4-----------4--|--------------------------------------------------|
A|-------2-----------2-----------4-----------4-----|-------7--7--------7--7---------7--7--------7--7--|
E|-0--3--------0--3--------2--6--------2--6--------|-0--0--------0--0---------0--0--------0--0--------|


E|--------|
B|--------|
G|--------|
D|--------|
A|--------|
E|--------|
Login or Register to remove this ad.