Monster Dance (Castlevania 2) Bass/Guitar Tab

Submitted: Nov 21, 2014 by ltm_1988

0
Download | Listen
Game: Castlevania 2
Composer(s): Club Kukeiha
Style: Arrangement, Fingerstyle
Series: Castlevania

AutoScroll: Slow | Medium | Fast
Monster Dance (Night Theme)
Castlevania II: Simon's Quest
Kenichi Matsubara, Satoe Terashima
ltm_1988
11/20/2014

    S S S E   E   S S S S S S S S S   S S S E   E   S S S S S S S S S
E||-0-----0-----------3-0---3-0---3-|-0-----0-----------3-0---3-0---3-|
B||---2-3-----1-----------2-----2---|---2-3-----1-----------2-----2---|
G||*--------------3-3~--------------|---------------3-3~--------------|
D||*2---0-2-------------------------|-2---0-2-------------------------|
A||---4-------3---1---------1-------|---4-------3---1---------1-------|
E||---------------------------------|---------------------------------|

    S S S S S S S S S S S S S S S S   S S S S S S S S S S S S S S S S
E||---------------------------------|---------------------------2-5-7-|
B||---------------------------------|-------------------------4-------|
G||---------------------------------|---------------------------------|
D||-------0-----2-------------------|-----1---2---4-------1---2---4---|
A||-----2-----------4-0---------0-2-|-2-2-0-2---2-0-2-2-2-0-2---2-----|
E||-0-3-0-0-3-0-4-0-0-0-0-0-2-3-4-0-|-2-3-----2-3-----2-3-----------7-|

    S S S S S S S S S S S S S S S S   S S S S S S S S S S S S S S S S
E||---------------------------------|---------------------------2-5-7-|
B||---------------------------------|-------------------------4-------|
G||---------------------------------|---------------------------------|
D||-------0-----2-------------------|-----1---2---4-------1---2---4---|
A||-----2-----------4-0---------0-2-|-2-2-0-2---2-0-2-2-2-0-2---2-----|
E||-0-3-0-0-3-0-4-0-0-0-0-0-2-3-4-0-|-2-3-----2-3-----2-3-----------7-|

    S S S E.    E   E   S E.    E     E   S E.    E   S E   S S S S S
E||-----5-8-----12--11----7~--------|-10----------7---8~--------------|
B||---5-----------------------------|-------9-------------------------|
G||-5-------------------------------|-------------------------0-------|
D||-----------------9---9-------9---|-----------------7-7---7-------0-|
A||-0---0-7-----12--------9---------|-8---8-------8-------------8-7---|
E||---------------------------------|-------7-------------------------|

    E   S E.    E   E.    S S S S S   S S S S S S S S S S S S S S S S
E||-------7-----3---1-----3-5-3-1-0-|---------0-0---2-2---3-3---3-2-0-|
B||-8-------------------------------|---4-4---------------------------|
G||-0---0-------0---------0-2-0-----|---------------------------------|
D||-------0---------------------3-2-|-----1---2---4-------1---2---4---|
A||---------------------------------|---2---2---2---2---2---2---2---2-|
E||-----------------1---------------|---------------------------------|

    S S S S S S S S S S S S S S S S x3 W
E||---------0-0---------------------||-0-
B||---4-4---------------------------||-0-
G||---------------4~---------------*||-0-
D||-----1---2---4-------------1-4--*||-2-
A||---2---2---2---2-2-2-2-2-2-----0-||-2-
E||---------------------------------||-0-
Login or Register to remove this ad.