Ads

Dwelling of Doom (Castlevania 2) Guitar Tab

Submitted: Nov 21, 2014 by ltm_1988

0
Download | Listen
Game: Castlevania 2
Composer(s): Club Kukeiha
Style: Arrangement, Fingerstyle
Series: Castlevania

AutoScroll: Slow | Medium | Fast
Dwelling of Doom (Mansion Theme)
Castlevania II: Simon's Quest
Kenichi Matsubara, Satoe Terashima
ltm_1988
11/16/2014

    |-3-| |-3-| |-3-| |-3-|   |-3-| |-3-| |-3-| |-3-|   |-3-| |-3-| |-3-| |-3-|   |-3-| |-3-| |-3-| |-3-|
    Q   E E E E Q   E E E E   Q   E E E E Q.    Q.      Q   E E E E Q   E E E E   Q   E E E E Q   E E Q
C#|-------------------------|-------1---1-1-----1-----|-------------------1---1-|-1---1-4-3-4-4---4---4---|
A||-------------------0---0-|-0---0---3---------------|-------0---0-0---0---3---|-------------------------|
F||*------0---0-0---0---2---|-------------------------|-0---0-0-2-0-------0---0-|-------0---0-------------|
C||*2---2---4---------------|-------------------0-----|---------3-----------3---|---------3---------------|
G||-------2-0-2-------2-0-2-|-------2-0-2-------------|-3---3-------3---3-------|-3---3-------3-----1-----|
D||-0---0-------0---0-------|-0---0-------0-----------|-------------------------|-------------------------|

    |-3-| |-3-| |-3-| |-3-|   |-3-| |-3-| |-3-| |-3-|   |-3-| |-3-| |-3-| |-3-|   |-3-| |-3-| |-3-| |-3-|
    E E E E E E E E E E E E   E E E E E E E E E E E E   Q   E E E E E E E E E E   Q   E E E E E E E E E E
C#|-3-0---------0-----------|-----------------------0-|-1-----------------0---0-|-1-----------------------|
A||-----0---------1---------|-1---------------1---1---|-----------------1---1---|-------------------------|
F||-------2---------2-------|---2-----------2---2-----|-------4~------2-------0-|-------4~----------2-0---|
C||---------4-1-------4-1---|-----4-1-----4-----------|-2---2-2-4-5-2---2-2-4---|-2---2-2-4-5-2-4-5-----4-|
G||-0-----0-----0-----0-0-2-|-0-0-0-0-2-0-0-0-2-2-2-2-|-------------------------|-------------------2-----|
D||-------------------------|-------------------------|-------------------------|-------------------------|

    |-3-| |-3-| |-3-| |-3-|   |-3-| |-3-| |-3-| |-3-|   |-3-| |-3-| |-3-| |-3-|   |-3-| |-3-| |-3-| |-3-|
    Q   E E E E Q   E E E E   Q   E E E E E E E E E E   Q   E E E E E E E E E E   Q   E E E E E E E E E E
C#|-------------------------|-------1---1-1---1-------|-1-----------------0---0-|-1-----------------------|
A||-------------------0---0-|-0-------3-----3---------|-----------------1---1---|-------------------------|
F||-------0---0-0-------2---|-------------------2-----|-------4~------2-------0-|-------4~----------2-0---|
C||-2-------4-2---------0-2-|---------0-2---0-2---4-1-|-2---2-2-4-5-2---2-2-4---|-2---2-2-4-5-2-4-5-----4-|
G||-3---3-3-5---3---3-3-----|-3---3-3-----3-----2-2-2-|-------------------------|-------------------2-----|
D||-------------------------|-------------------------|-------------------------|-------------------------|

    |-3-| |-3-| |-3-| |-3-|   |-3-| |-3-| |-3-| |-3-|   |-3-| |-3-| |-3-| |-3-|   |-3-| |-3-| |-3-| |-3-|
    Q   E E E E Q   E E E E   Q   E E E E E E E E E E   E E E E E E E E E E E E   E E E E E E E E E E E E
C#|-------------------------|-------1---1-1---1-------|-------------------------|-------------------------|
A||-------------------0---0-|-0-------3-----3---------|-1---------1-0---------0-|-------------------------|
F||-------0---0-0-------2---|-------------------2-----|---2-----------0---------|-2---------2-0-----------|
C||-2-------4-2---------0-2-|---------0-2---0-2---4-1-|-----4-1-4-------2---2---|---4-1---1-----2-------2-|
G||-3---3-3-5---3---3-3-----|-3---3-3-----3-----2-2-2-|-2---2-------------2-----|-------3---------2---2---|
D||-------------------------|-------------------------|-------------3---3-------|-2---2-------0---0-3-3-3-|

    |-3-| |-3-| |-3-| |-3-|   |-3-| |-3-| |-3-| |-3-|
    Q   E E E E Q   E E E E   Q   E Q   E E E E E E E x3 W
C#|-------1---1-------1---1-|-------1-----0-----------||-1-
A||-1~------3-----------3---|-2-------------0-2-------||-0-
F||-------2-----4~----0-----|------------------------*||-0-
C||-------------------------|-------4-----------1-2-4*||-2-
G||-0---0-----0-------------|-------------2-2-2-2-2-2-||-2-
D||-------------3---3-----3-|-2---2-----2-------------||-0-
Login or Register to remove this ad.