Ads

That Person's Name Is... (Bravely Default) Bass/Guitar Tab

Submitted: Nov 17, 2014 by gudz

5
Average: 5 (1 vote)
Download | Listen
Game: Bravely Default
Composer(s): Revo
Style: 2 or more instruments, Transcription

This song is also called Asterisk Boss

AutoScroll: Slow | Medium | Fast
That Person's Name Is...
Bravely Default
Tabbed by gudz

Thanks to ForestMarth, who helped me figure out measures 59 and 111 on the bass :)


Electric Guitar

     E   S  S     Q.      S  S  Q        Q        Q.      S  S  Q        Q     
E||-----------|----------------------10g12----|-------------------------------|
B||-----10-12-|--13------12-10-12-------------|--10------------------11g13----|
G||-----------|-------------------------------|----------12-10-12-------------|
D||-----------|-------------------------------|-------------------------------|
A||-----------|-------------------------------|-------------------------------|
E||-----------|-------------------------------|-------------------------------|


   W                      H        E.   E.   E   
--------------------|---------------------------|
--------------------|--8g10--------9---10---12--|
--10----------------|---------------------------|
--------------------|---------------------------|
--------------------|---------------------------|
--------------------|---------------------------|


   Q.      S  S  Q        Q           E.   T   T   E   E   Q      Q     
----------------------10g12----|--13g15---13h-15p-13--12--13s----20----|
--13------12-10-12-------------|---------------------------------------|
-------------------------------|---------------------------------------|
-------------------------------|---------------------------------------|
-------------------------------|---------------------------------------|
-------------------------------|---------------------------------------|


   W                    H         Q.      S  S  
--------------------|--17--------16------------|
--18----------------|--------------------10-12-|
--------------------|--------------------------|
--------------------|--------------------------|
--------------------|--------------------------|
--------------------|--------------------------|


   Q.      S  S  Q    Q        E.   E.   E  Q.     S S     Q.     S  S  E.  E.   E      Q.      E   Q.      S  S  
---------------------------|---------------------------|--------------------8---10--|--12----------15------13-12-|
--13------12-10-12----8----|--10---12---10-------------|----------8-10-12-----------|----------------------------|
---------------------------|----------------9------7-9-|--10------------------------|----------12----------------|
---------------------------|---------------------------|----------------------------|----------------------------|
---------------------------|---------------------------|----------------------------|----------------------------|
---------------------------|---------------------------|----------------------------|----------------------------|

                                                         >    >                                               
   E.   E.   E   H            E.   E.   E   H            E.   E.   Q     E  E   E     Q    H        E   S  S  
-------12-----------------|------------12------------|-----------------------------|-------------------------|
--15--------15--12--------|--13---15-------10--------|--12---12---12----10--8------|-------------------10-12-|
--------------------------|--------------------------|-------------------------10--|--9----------------------|
--------------------------|--------------------------|-----------------------------|-------------------------|
--------------------------|--------------------------|-----------------------------|-------------------------|
--------------------------|--------------------------|-----------------------------|-------------------------|


   Q.      S  S  Q    Q        E.   E.   E  Q.     S S     Q.     S  S  E.  E.   E      Q.      E   Q.      S  S  
---------------------------|---------------------------|--------------------8---10--|--12----------15------13-12-|
--13------12-10-12----8----|--10---12---10-------------|----------8-10-12-----------|----------------------------|
---------------------------|----------------9------7-9-|--10------------------------|----------12----------------|
---------------------------|---------------------------|----------------------------|----------------------------|
---------------------------|---------------------------|----------------------------|----------------------------|
---------------------------|---------------------------|----------------------------|----------------------------|

                                                         >    >                         >    >                      
   E.   E.   E   H            E.   E.   E   H            E.   E.   Q     E   E   E      E.   E.   Q     E   E   E   
-------12-----------------|------------12------------|----------------------15--13--|--12---12---12----13------13--|
--15--------15--12--------|--13---15-----------------|--12---12---12----------------|----------------------13------|
--------------------------|----------------14--------|------------------12----------|------------------------------|
--------------------------|--------------------------|------------------------------|------------------------------|
--------------------------|--------------------------|------------------------------|------------------------------|
--------------------------|--------------------------|------------------------------|------------------------------|


      E.   E.   E   Q     Q        Q     S  S  S  S  Q.      E      E.   S  H        E   E   
--12g14--------14--16----------|--------------17-19-21----------|--21------21--------L--21--|
----------15-------------17----|--19-----L-21---------------19--|-------19------------------|
-------------------------------|--------------------------------|---------------------------|
-------------------------------|--------------------------------|---------------------------|
-------------------------------|--------------------------------|---------------------------|
-------------------------------|--------------------------------|---------------------------|


   E.   E.   Q     E   E   E      E.   E.   Q     E   E   E      Q     S  S  S  S  Q.      E   
--20---17---------20--17------|--20---17---------19--17--16--|--------------17-19-21----------|
------------19------------19--|------------19----------------|--19-----L-21---------------19--|
------------------------------|------------------------------|--------------------------------|
------------------------------|------------------------------|--------------------------------|
------------------------------|------------------------------|--------------------------------|
------------------------------|------------------------------|--------------------------------|


   E.   S  H        E   E      E.  E.  Q     E  E  E      E.  E.  E   E.   E.   E   
--21------21--------L------|--------------------------|----------------------------|
-------19------------------|--------------------------|----------------------------|
-----------------------11--|--10---7--------10--7-----|--10---7------13---10-------|
---------------------------|-----------9-----------9--|-----------9------------12--|
---------------------------|--------------------------|----------------------------|
---------------------------|--------------------------|----------------------------|


   Q.      S  S  Q    Q        E.   E.   E  Q.     S S     Q.     S  S  E.  E.   E      Q.      E   Q.      S  S  
---------------------------|---------------------------|--------------------8---10--|--12----------15------13-12-|
--13------12-10-12----8----|--10---12---10-------------|----------8-10-12-----------|----------------------------|
---------------------------|----------------9------7-9-|--10------------------------|----------12----------------|
---------------------------|---------------------------|----------------------------|----------------------------|
---------------------------|---------------------------|----------------------------|----------------------------|
---------------------------|---------------------------|----------------------------|----------------------------|

                                                         >    >                                               
   E.   E.   E   H            E.   E.   E   H            E.   E.   Q     E  E   E     Q    H        E   S  S  
-------12-----------------|------------12------------|-----------------------------|-------------------------|
--15--------15--12--------|--13---15-------10--------|--12---12---12----10--8------|-------------------10-12-|
--------------------------|--------------------------|-------------------------10--|--9----------------------|
--------------------------|--------------------------|-----------------------------|-------------------------|
--------------------------|--------------------------|-----------------------------|-------------------------|
--------------------------|--------------------------|-----------------------------|-------------------------|


   Q.      S  S  Q    Q        E.   E.   E  Q.     S S     Q.     S  S  E.  E.   E      Q.      E   Q.      S  S  
---------------------------|---------------------------|--------------------8---10--|--12----------15------13-12-|
--13------12-10-12----8----|--10---12---10-------------|----------8-10-12-----------|----------------------------|
---------------------------|----------------9------7-9-|--10------------------------|----------12----------------|
---------------------------|---------------------------|----------------------------|----------------------------|
---------------------------|---------------------------|----------------------------|----------------------------|
---------------------------|---------------------------|----------------------------|----------------------------|

                                                         >    >                         >    >                      
   E.   E.   E   H            E.   E.   E   H            E.   E.   Q     E   E   E      E.   E.   Q     E   E   E   
-------12-----------------|------------12------------|----------------------15--13--|--12---12---12----13------13--|
--15--------15--12--------|--13---15-----------------|--12---12---12----------------|----------------------13------|
--------------------------|----------------14--------|------------------12----------|------------------------------|
--------------------------|--------------------------|------------------------------|------------------------------|
--------------------------|--------------------------|------------------------------|------------------------------|
--------------------------|--------------------------|------------------------------|------------------------------|


   E.   E.   E   Q     Q        Q     S  S  S  S  Q.      E      E.   S  H        E   E   
--14--------14--16----------|--------------17-19-21----------|--21------21--------L--21--|
-------15-------------17----|--19-----L-21---------------19--|-------19------------------|
----------------------------|--------------------------------|---------------------------|
----------------------------|--------------------------------|---------------------------|
----------------------------|--------------------------------|---------------------------|
----------------------------|--------------------------------|---------------------------|

                                                         |---3---|                                       
   E.    E.   Q     E    E   E      E.    E.   Q     E   S   S   S  E      Q     S  S  S  S  Q.      E   
--19b---17---------19b--17------|--19b---17---------19--17h-19p-17-16--|--------------17-19-21----------|
-------------19-------------19--|-------------19-----------------------|--19-----L-21---------------19--|
--------------------------------|--------------------------------------|--------------------------------|
--------------------------------|--------------------------------------|--------------------------------|
--------------------------------|--------------------------------------|--------------------------------|
--------------------------------|--------------------------------------|--------------------------------|


   E.   S  H        E   E      E.  E.  Q     E  E  E      E.  E.  E   E.   E.   E   
--21------21--------L------|--------------------------|----------------------------|
-------19------------------|--------------------------|----------------------------|
-----------------------11--|--10---7--------10--7-----|--10---7------11---12---14--|
---------------------------|-----------9-----------9--|-----------9----------------|
---------------------------|--------------------------|----------------------------|
---------------------------|--------------------------|----------------------------|


   Q.      S  S  Q     Q        E.   E.   E   H           E.   E.   E  Q     E   E      E   E   E   S S  Q     E   E   
----------------------12----|--10----------------------|----------------------------|---------------------------------|
--12------10-12-13----------|-------10---13--12--------|--8---10---12-------10------|-------------------------10--12--|
----------------------------|--------------------------|---------------9--------12--|--12--12--12--11-9-11------------|
----------------------------|--------------------------|----------------------------|---------------------------------|
----------------------------|--------------------------|----------------------------|---------------------------------|
----------------------------|--------------------------|----------------------------|---------------------------------|


   Q.      E   Q     Q           E.   E.   E      H            Q.      S  S  E.   E.   E   
--------------------12----|--12g14------------17g19--------|--17------15------------------|
--12------12--12----------|----------17---15---------------|-------------19-17---15---15--|
--------------------------|--------------------------------|------------------------------|
--------------------------|--------------------------------|------------------------------|
--------------------------|--------------------------------|------------------------------|
--------------------------|--------------------------------|------------------------------|


   E   E   E   S  S  Q     E   E      E.   E.   E   H         
----------------------------------|--------------------------|
--17--16--17--16-17--L----17--17--|--17---16-------12--------|
----------------------------------|------------13------------|
----------------------------------|--------------------------|
----------------------------------|--------------------------|
----------------------------------|--------------------------|


   E   E   E   S  S E   E   E   E      W                 
-----------------------------------|--------------------|
--14--12--14-----14-L--12--14------|--------------------|
--------------13-------------------|--13----------------|
-------------------------------14--|--------------------|
-----------------------------------|--------------------|
-----------------------------------|--------------------|


   E   E   E   S  S Q.      E      E   E   E   S  S Q.      E   
-------------------------------|-------------------------------|
-------------------------------|-------------------------------|
--14--13--14-----14-L------14--|--13--11--13-----13-L------13--|
--------------14---------------|--------------14---------------|
-------------------------------|-------------------------------|
-------------------------------|-------------------------------|


   E   E   E   S  S E   E   E   S  S     H.           E   E   
-------------------------------------|----------------9--11--|
-------------------------------------|-----------------------|
--12--10--12-----12-L--10--12-----13-|---L-------------------|
--------------13---------------13----|-----------------------|
-------------------------------------|-----------------------|
-------------------------------------|-----------------------|


   E   E   E  S  S Q     E   E      E.   E.   E   H         
--12--11--12----12-L----12--12--|--12---11-----------------|
--------------9-----------------|----------------12--------|
--------------------------------|------------13------------|
--------------------------------|--------------------------|
--------------------------------|--------------------------|
--------------------------------|--------------------------|


   E   E   E   S  S E   E   E   S  S     E   E   H.            
-------------------------------------|------------------------|
--14--12--14-----14-L--12--14--------|------------------------|
--------------13------------------11-|---L--13---L------------|
-------------------------------14----|------------------------|
-------------------------------------|------------------------|
-------------------------------------|------------------------|


   E   E   E   S  S Q.      E      E   E   E   S  S Q.      E   
-------------------------------|-------------------------------|
-------------------------------|-------------------------------|
--14--13--14-----14-L------14--|--16--14--16-----16-L------16--|
--------------14---------------|--------------14---------------|
-------------------------------|-------------------------------|
-------------------------------|-------------------------------|


   E   E   E   S  S E   E   E   E      H.            E   E   
-----------------------------------|------------------------|
-------------------------------16--|--16------------14--16--|
--18--16--18--15-18-L--16--18------|------------------------|
-----------------------------------|------------------------|
-----------------------------------|------------------------|
-----------------------------------|------------------------|

                                                       |-----3-----|     
   E   E   E   S  S Q     E   E      E   E   E   S  S  Q     Q     Q     
---------------------------------|--------------------------------------|
--17--16--17--14-17-L----17--17--|--16--14--16-----16--L----------16----|
---------------------------------|--------------13----------13----------|
---------------------------------|--------------------------------------|
---------------------------------|--------------------------------------|
---------------------------------|--------------------------------------|


   Q.      S  S  Q     Q        Q.      S  S  Q     Q        W                    H         E.   E.   E   
----------------------------|----------------------12----|--------------------|--------------------------|
--14------16-14-16----------|--14------------------------|--------------------|--14-------------14---16--|
----------------------13----|----------16-14-16----------|--14----------------|------------17------------|
----------------------------|----------------------------|--------------------|--------------------------|
----------------------------|----------------------------|--------------------|--------------------------|
----------------------------|----------------------------|--------------------|--------------------------|

                                        |---3---|                                                                       
   Q.      S  S  Q     Q           E.   S   S   S   E   E   E    S  Q        Q     H.               H         H         
----------------------16----|--17g19---17h-19p-17p-16--17--19s--24--L----|---L------------------|--21--------20--------|
--17------16-14-16----------|--------------------------------------------|--------22------------|----------------------|
----------------------------|--------------------------------------------|----------------------|----------------------|
----------------------------|--------------------------------------------|----------------------|----------------------|
----------------------------|--------------------------------------------|----------------------|----------------------|
----------------------------|--------------------------------------------|----------------------|----------------------|


   S  S  S  S  S  S  S  S  S  S  S  S  S  S  S  S     S  S  S  S  S  S  S  S  S  S  S  S  S  S  S  S  
--------------------------------------------------|--------------------------------------------------|
--11----------------11----10----------------10----|--11----------------11----13----------------13----|
-----10----10----10----10----10----10----10----10-|-----10----10----10----10----13----13----13----13-|
--------11----------------------10----------------|--------11----------------------13----------------|
--------------13----------------------12----------|--------------13----------------------15----------|
--------------------------------------------------|--------------------------------------------------|


   S  S  S  S  S  S  S  S  S  S  S  S  S  S  S  S     S  S  S  S  S  S  S  S  S  S  S  S  S  S  S  S  
--------------------------------------------------|--------------------------------------------------|
--14----------------14----13----------------13----|--14----------------14----15----------------15----|
-----13----13----13----13----13----13----13----13-|-----13----13----13----13-------16----15----------|
--------15----------------------13----------------|--------15-------------------15----15----15----15-|
--------------16----------------------15----------|--------------16----------------------------------|
--------------------------------------------------|--------------------------------------------------|


   S  S  S  S  S  S  S  S  S  S  S  S  S  S  S  S     S  S  S  S  S  S  S  S  S  S  S  S  S  S  S  S  
--------------------------------------------------|--------------------------------------------------|
--16----------------16----15----------------15----|--16----------------16----17----------------17----|
-----15----15----15----15----15----15----15----15-|-----15----15----15----15-------17----16----------|
--------16----------------------15----------------|--------16-------------------17----17----17----17-|
--------------18----------------------17----------|--------------18----------------------------------|
--------------------------------------------------|--------------------------------------------------|


   S  S  S  S  S  S  S  S  S  S  S  S  S  S  S  S     S  S  S  S  S  S  S  S  S  S  S  S  S  S  S  S  
--------------------------------------------------|--------------------------------------------------|
--18----------------18----------------18----------|--18----------16----------14----------13----------|
-----17----17----17----17----17----17----17----17-|--------17----------17----------14----------14----|
--------20----------------20----------------20----|-----19----19----19----19----15----15----15----15-|
--------------20----------------20----------------|--------------------------------------------------|
--------------------------------------------------|--------------------------------------------------|


   S  S  S  S  S  S  S  S  S  S  S  S  S  S  S  S     S  S  S  S  S  S  S  S  S  S  S  S  S  S  S  S  
--13----------------13----13----------------13----|--13----------------13----16----14----13----16----|
-----14----14----14----14----13----13----13----13-|-----14----14----14----14----16----16----16----16-|
--------15----------------------14----------------|--------15----------------------------------------|
--------------15----------------------15----------|--------------15----------------------------------|
--------------------------------------------------|--------------------------------------------------|
--------------------------------------------------|--------------------------------------------------|


   S  S  S  S  S  S  S  S  S  S  S  S  S  S  S  S     S  S  S  S  S  S  S  S  S  S  S  S  S  S  S  S  
--21----------------------20----------------------|--21----------------------------------------------|
-----21----21-------21-------21----21-------21----|-----21----21-------21----23----21----19----18----|
--------22-------22----22-------20-------20----20-|--------22-------22----22----19----19----19----19-|
--------------23----------------------22----------|--------------23----------------------------------|
--------------------------------------------------|--------------------------------------------------|
--------------------------------------------------|--------------------------------------------------|


   S  S  S  S  S  S  S  S  S  S  S  S  S  S  S  S     S  S  S  S  S  S  S  S  S  S  S  S  S  S  S  S  
--23----------------23----22-25-22----------22----|--23----------------23----20----18----17----20----|
-----23----23----23----23----------24-23-23----23-|-----23----23----23----23----20----20----20----20-|
--------23----------------------------------------|--------23----------------------------------------|
--------------25----------------------------------|--------------25----------------------------------|
--------------------------------------------------|--------------------------------------------------|
--------------------------------------------------|--------------------------------------------------|


   S  S  S  S  S  S  S  S  S  S  S  S  S  S  S  S     S  S  S  S  S  S  S  S  S  S  S  S  S  S  S  S  
--20-18----------18-20-18----------18-20-18----18-|--20-17----17----17-20-17----17----17-20-17----17-|
--------18----18----------18----18----------18----|--------18----------------18----------------18----|
-----------17----------------17-------------------|--------------17----------------17----------------|
--------------------------------------------------|--------------------------------------------------|
--------------------------------------------------|--------------------------------------------------|
--------------------------------------------------|--------------------------------------------------|


   S  S  S  S  S  S  S  S  S  S  S  S  S  S  S  S     S  S  S  S  S  S  S  S  Q     Q       W                  
--20-18----------18-20-18----------18-20-18----18-|--20-17----17----17-20-17-20\---------|-------------------||
--------18----18----------18----18----------18----|--------18----------------------------|-------------------||
-----------17----------------17-------------------|--------------17----------------------|-------------------||
--------------------------------------------------|--------------------------------------|-------------------||
--------------------------------------------------|--------------------------------------|-------------------||
--------------------------------------------------|--------------------------------------|-------------------||


Alternative for measures 93 - 110 based on xMayaku's cover https://www.youtube.com/watch?v=-xjatE6dNYc

----------------------------|
--11-6--6--11-6--6--11-6----|
----------------------------|
----------------------------|
----------------------------|
----------------------------|


----------------------------|----------------------------|
--10-6--6--10-6--6--10-6----|--11-6--6--11-6--6--11-11---|
----------------------------|----------------------------|
----------------------------|----------------------------|
----------------------------|----------------------------|
----------------------------|----------------------------|


----------------------------|----------------------------|
--13-13-11-11-9--9--13-13---|--14-9--9--14-9--9--14-9----|
----------------------------|----------------------------|
----------------------------|----------------------------|
----------------------------|----------------------------|
----------------------------|----------------------------|


----------------------------|----------------------------|
--13-9--9--13-9--9--13-9----|--14-9--9--14-9--9--14-14---|
----------------------------|----------------------------|
----------------------------|----------------------------|
----------------------------|----------------------------|
----------------------------|----------------------------|


----------------------------|----------------------------|
--15-15-12-12-11-11-15-15---|--16-11-11-16-11-11-16-11---|
----------------------------|----------------------------|
----------------------------|----------------------------|
----------------------------|----------------------------|
----------------------------|----------------------------|


----------------------------|----------------------------|
--15-11-11-15-11-11-15-11---|--16-11-11-16-11-11-16-16---|
----------------------------|----------------------------|
----------------------------|----------------------------|
----------------------------|----------------------------|
----------------------------|----------------------------|


----------------------------|----------------------------|
--17-17-14-14-13-13-17-17---|--18-13-13-18-13-13-18-13---|
----------------------------|----------------------------|
----------------------------|----------------------------|
----------------------------|----------------------------|
----------------------------|----------------------------|


----------------------------|----------------------------|
--18-13-13-18-13-13-18-13---|--18-18-16-16-14-14-13-13---|
----------------------------|----------------------------|
----------------------------|----------------------------|
----------------------------|----------------------------|
----------------------------|----------------------------|


----------------------------|----------------------------|
--11-6--6--11-6--6--11-6----|--10-6--6--10-6--6--10-6----|
----------------------------|----------------------------|
----------------------------|----------------------------|
----------------------------|----------------------------|
----------------------------|----------------------------|


----------------------------|----------------------------|
--11-6--6--11-6--6--11-11---|--13-13-11-11-9--9--13-13---|
----------------------------|----------------------------|
----------------------------|----------------------------|
----------------------------|----------------------------|
----------------------------|----------------------------|


----------------------------|----------------------------|
--14-9--9--14-9--9--14-9----|--13-9--9--13-9--9--13-9----|
----------------------------|----------------------------|
----------------------------|----------------------------|
----------------------------|----------------------------|
----------------------------|----------------------------|


----------------------------|----------------------------|
--14-9--9--14-9--9--14-14---|--15-15-12-12-11-11-15-15---|
----------------------------|----------------------------|
----------------------------|----------------------------|
----------------------------|----------------------------|
----------------------------|----------------------------|


----------------------------|----------------------------|
--16-11-11-16-11-11-16-11---|--15-11-11-15-11-11-15-11---|
----------------------------|----------------------------|
----------------------------|----------------------------|
----------------------------|----------------------------|
----------------------------|----------------------------|


----------------------------|----------------------------|
--16-11-11-16-11-11-16-16---|--17-17-14-14-13-13-17-17---|
----------------------------|----------------------------|
----------------------------|----------------------------|
----------------------------|----------------------------|
----------------------------|----------------------------|


----------------------------|----------------------------|
--18-13-13-18-13-13-18-13---|--18-13-13-18-13-13-18-13---|
----------------------------|----------------------------|
----------------------------|----------------------------|
----------------------------|----------------------------|
----------------------------|----------------------------|


----------------------------|----------------------------|
--18-13-13-18-13-13-18-13---|--18-13-13-18-13-13-18-13---|
----------------------------|----------------------------|
----------------------------|----------------------------|
----------------------------|----------------------------|
----------------------------|----------------------------|


----------------------------|----------------------------||
--18-13-13-18-13-13-18-13---|--18-13-13-18-13-13-18-13---||
----------------------------|----------------------------||
----------------------------|----------------------------||
----------------------------|----------------------------||
----------------------------|----------------------------||




Electric Bass

             H        H           H        H           W                   H        E.  E.  E   
G||-------|--------------------|--------------------|-------------------|----------------------|
D||-------|--------------------|--------------------|-------------------|----------------------|
A||-------|--------------------|--------------------|-------------------|----------------------|
E||-------|--5--------3--------|--1--------0--------|-------------------|---------------2---4--|
B||-------|--------------------|--------------------|--3----------------|--5--------5----------|


  H        H           H        H           W                   W                 
--------------------|--------------------|-------------------|-------------------|
--------------------|--------------------|-------------------|-------------------|
--------------------|--------------------|-------------------|-------------------|
--5--------3--------|--1--------0--------|-------------------|-------------------|
--------------------|--------------------|--3----------------|--5----------------|


  E  S E  S E  E  S E  S E     E  S E  S E  E  S E  S E     E  S E  S E  E  S E  S E     E  S E  S E  E.  E.  E   
----------------------------|----------------------------|----------------------------|--------------------------|
----------------------------|----------------------------|----------------------------|--------------------------|
----------------------------|---------------3--3-3--3-3--|----------------------------|--3--3-3--3-3--4---0---4--|
--5--5-5--5-5--3--3-3--3-3--|--1--1-1--1-1---------------|--1--1-1--1-1--3--3-3--3-3--|--------------------------|
----------------------------|----------------------------|----------------------------|--------------------------|

                                                            >   >                                 S P    P   
  E  S E  S E  E  S E  S E     E  S E  S E  E  S E  S E     E.  E.  Q    E  E  E     E.  E.  Q    S E  S E   
----------------------------|----------------------------|------------------------|-------------------------|
----------------------------|----------------------------|------------------------|-------------------------|
--5--5-5--5-5------------2--|--3--3-3--3-3---------------|--2---2---2----0--------|-----------------7----7--|
---------------3--3-3--3----|---------------1--1-1--1-1--|------------------3--1--|--0---0---0----0----x----|
----------------------------|----------------------------|------------------------|-------------------------|


  E  S E  S E  E  S E  S E     E  S E  S E  E  S E  S E     E  S E  S E  E  S E  S E     E  S E  S E  E.  E.  E   
----------------------------|----------------------------|----------------------------|--------------------------|
----------------------------|----------------------------|----------------------------|--------------------------|
----------------------------|---------------3--3-3--3-3--|----------------------------|--3--3-3--3-3--4---0---4--|
--5--5-5--5-5--3--3-3--3-3--|--1--1-1--1-1---------------|--1--1-1--1-1--3--3-3--3-3--|--------------------------|
----------------------------|----------------------------|----------------------------|--------------------------|

                                                            >   >                    >   >                  
  E  S E  S E  E  S E  S E     E  S E  S E  E  S E  S E     E.  E.  Q    E  E  E     E.  E.  Q    E  E  E   
----------------------------|----------------------------|------------------------|------------------------|
----------------------------|----------------------------|------------------------|------------------------|
--5--5-5--5-5------------2--|--3--3-3--3-3---------------|--2---2---2----0--------|------------------3-----|
---------------3--3-3--3----|---------------1--1-1--1-1--|------------------3--1--|--0---0---0----1-----1--|
----------------------------|----------------------------|------------------------|------------------------|


  E.  E.  E  Q    Q       E  Q    Q    E  E  E     E  Q    Q    E  E  E   
-----------------------|------------------------|------------------------|
-----------------------|------------------------|------------------------|
-----------------------|------------------------|------------------0--4--|
--2-------2--4---------|--2--2----2----2--2--2--|--2--2----2----4--------|
------3-----------5----|------------------------|------------------------|


  E  Q    Q    E  E  E     E  Q    Q    E  E  E     E  Q    Q    E  E  E   
------------------------|------------------------|------------------------|
------------------------|------------------------|------------------------|
--5--5----5----5--5--5--|--5--5----5----4--0-----|------------------------|
------------------------|---------------------4--|--2--2----2----2--2--2--|
------------------------|------------------------|------------------------|


  E  Q    Q    E  E  E     E  Q    Q    E  E  E     E.  E.  E  E.  E.  E   
------------------------|------------------------|------------------------|
------------------------|------------------------|----------6--9---6------|
------------------0--4--|--5--5----5----5--5--5--|--5---8--------------8--|
--2--2----2----4--------|------------------------|------------------------|
------------------------|------------------------|------------------------|


  Q    S S E  E  S E  S E     E  S E  S E  E  S E  S E     E  S E  S E  E  S E  S E     E  S E  S E  E.  E.  E   
---------------------------|----------------------------|----------------------------|--------------------------|
---------------------------|----------------------------|----------------------------|--------------------------|
---------------------------|---------------3--3-3--3-3--|----------------------------|--3--3-3--3-3--4---0---4--|
---------5-5--3--3-3--3-3--|--1--1-1--1-1---------------|--1--1-1--1-1--3--3-3--3-3--|--------------------------|
---------------------------|----------------------------|----------------------------|--------------------------|

                                                            >   >                                 S P    P   
  E  S E  S E  E  S E  S E     E  S E  S E  E  S E  S E     E.  E.  Q    E  E  E     E.  E.  Q    S E  S E   
----------------------------|----------------------------|------------------------|-------------------------|
----------------------------|----------------------------|------------------------|-------------------------|
--5--5-5--5-5------------2--|--3--3-3--3-3---------------|--2---2---2----0--------|-----------------7----7--|
---------------3--3-3--3----|---------------1--1-1--1-1--|------------------3--1--|--0---0---0----0----x----|
----------------------------|----------------------------|------------------------|-------------------------|


  E  S E  S E  E  S E  S E     E  S E  S E  E  S E  S E     E  S E  S E  E  S E  S E     E  S E  S E  E.  E.  E   
----------------------------|----------------------------|----------------------------|--------------------------|
----------------------------|----------------------------|----------------------------|--------------------------|
----------------------------|---------------3--3-3--3-3--|----------------------------|--3--3-3--3-3--4---0---4--|
--5--5-5--5-5--3--3-3--3-3--|--1--1-1--1-1---------------|--1--1-1--1-1--3--3-3--3-3--|--------------------------|
----------------------------|----------------------------|----------------------------|--------------------------|

                                                            >   >                    >   >                  
  E  S E  S E  E  S E  S E     E  S E  S E  E  S E  S E     E.  E.  Q    E  E  E     E.  E.  Q    E  E  E   
----------------------------|----------------------------|------------------------|------------------------|
----------------------------|----------------------------|------------------------|------------------------|
--5--5-5--5-5------------2--|--3--3-3--3-3---------------|--2---2---2----0--------|------------------3-----|
---------------3--3-3--3----|---------------1--1-1--1-1--|------------------3--1--|--0---0---0----1-----1--|
----------------------------|----------------------------|------------------------|------------------------|


  E.  E.  E  Q    Q       Q    S S S S Q    S S S S    Q    S S S S S S S S S S S S  
-----------------------|----------------------------|---------------------4-6-7-6-4-|
-----------------------|----------------------------|--4----4-4-4-4-4-6-7-----------|
-----------------------|----------------------------|-------------------------------|
--2-------2--4---------|--2----2-2-2-2-2----2-2-2-2-|-------------------------------|
------3-----------5----|----------------------------|-------------------------------|


  Q    S S S S Q    S S S S    Q    S S S S S S S S S S S S    Q    S S S S Q    S S S S  
----------------------------|-------------------------------|----------------------------|
----------------------------|-------------------------------|----------------------------|
--5----5-5-5-5-5----5-5-5-5-|--5----5-5-5-5-5-4-2-0-2-0-----|----------------------------|
----------------------------|---------------------------4-2-|--2----2-2-2-2-2----2-2-2-2-|
----------------------------|-------------------------------|----------------------------|


  Q    S S S S S S S S S S S S    Q    S S S S Q    Q       E  E  E  E  E  E  E  E   
---------------------4-6-7-6-4-|-------------------------|--------6-----------4-----|
--4----4-4-4-4-4-6-7-----------|-------------------------|-----6-----6-----4-----4--|
-------------------------------|--5----5-5-5-5-5----5----|--4-----------2-----------|
-------------------------------|-------------------------|--------------------------|
-------------------------------|-------------------------|--------------------------|


  E  S E  S E  E  S E  S E     E  S E  S E  E  S E  S E     E  S E  S E  E  S E  S E     E  S E  S E  E  S E  S E   
----------------------------|----------------------------|----------------------------|----------------------------|
----------------------------|----------------------------|----------------------------|----------------------------|
--2--2-2--2-2--3--3-3--3-3--|--5--5-5--5-5---------------|---------------3--3-3--3-3--|--5--5-5--5-5--5--5-5--5-5--|
----------------------------|---------------3--3-3--3-3--|--0--0-0--0-0---------------|----------------------------|
----------------------------|----------------------------|----------------------------|----------------------------|

                                                      >                      
  E.  E  S E  E  S E  S E     E.  E.  E  Q    Q       Q.     S S E.  E.  E   
---------------------------|-----------------------|------------------------|
---------------------------|----------4--5---------|------------------------|
------2--2-2--3--3-3--3-3--|--0---5-----------5----|--3------3-3-5---0---5--|
---------------------------|-----------------------|------------------------|
---------------------------|-----------------------|------------------------|


  E  S E  S E  E  S E  S E     E  S E  S E  E  S E  S E     E  S E  S E  E  S E  S E     E  S E  S E  E.  E.  E   
----------------------------|----------------------------|----------------------------|--------------------------|
----------------------------|----------------------------|----------------------------|--------------------------|
--4--4-4--4-4--4--4-4--4-4--|--2--2-2--2-2--2--2-2--2-2--|--0--0-0--0-0--2--2-2--2-2--|--7--7-7--7-7--7---6------|
----------------------------|----------------------------|----------------------------|-----------------------7--|
----------------------------|----------------------------|----------------------------|--------------------------|


  E  S E  S E  E  S E  S E     E  S E  S E  E  S E  S E     E  S E  S E  E  S E  S E     S S S S S S S S S S S S S S S S  
----------------------------|----------------------------|----------------------------|----------------------------------|
----------------------------|----------------------------|----------------------------|--6-6-6-6-4-4-4-4-----------------|
----------------------------|----------------------------|--6--6-6--6-6--6--6-6--6-6--|------------------7-7-7-7-6-6-6-6-|
--5--5-5--5-5--5--5-5--5-5--|--0--0-0--0-0--0--0-0--0-0--|----------------------------|----------------------------------|
----------------------------|----------------------------|----------------------------|----------------------------------|


  E  S E  S E  E  S E  S E     E  S E  S E  E  S E  S E     E  S E  S E  E  S E  S E     E  S E  S E  E.  E.  E   
----------------------------|----------------------------|----------------------------|--------------------------|
----------------------------|----------------------------|----------------------------|--------------------------|
--4--4-4--4-4--4--4-4--4-4--|--2--2-2--2-2--2--2-2--2-2--|--0--0-0--0-0--2--2-2--2-2--|--7--7-7--7-7--7---6------|
----------------------------|----------------------------|----------------------------|-----------------------7--|
----------------------------|----------------------------|----------------------------|--------------------------|


  E  S E  S E  E  S E  S E     E  S E  S E  E.  E.  E     E  S E  S E  E  S E  S E     E  S E  S E  E  S E  S E   
----------------------------|--------------------------|----------------------------|----------------------------|
----------------------------|--------------------------|----------------------------|----------------------------|
----------------------------|-----------------------7--|--6--6-6--6-6--6--6-6--6-6--|----------------------------|
--5--5-5--5-5--5--5-5--5-5--|--0--0-0--0-0--0---7------|----------------------------|--4--4-4--4-4--4--4-4--4-4--|
----------------------------|--------------------------|----------------------------|----------------------------|


  E  S E  S E  E  S E  S E     E  Q.     E.  E.  E   
----------------------------|-----------------------|
----------------------------|-----------------------|
----------------------------|-----------------------|
--5--5-5--5-5--5--5-5--5-5--|--7---------7---7---7--|
----------------------------|-----------------------|


  E  S E  S E  E  S E  S E     E  S E  S E  E  S E  S E     E  S E  S E  E  S E  S E     E  S E  S E  E.  E.  E   
----------------------------|----------------------------|----------------------------|--------------------------|
----------------------------|----------------------------|----------------------------|--------------------------|
----------------------------|----------------------------|----------------------------|--------------------------|
--9--9-9--9-9--7--7-7--7-7--|--5--5-5--5-5--4--4-4--4-4--|--2--2-2--2-2--2--2-2--2-2--|--4--4-4--4-4--4---6---8--|
----------------------------|----------------------------|----------------------------|--------------------------|


  E  S E  S E  E  S E  S E     E  S E  S E  E  S E  S E     E  S E  S E  E  S E  S E     E  S E  S E  E  S E  S E   
----------------------------|----------------------------|----------------------------|----------------------------|
----------------------------|----------------------------|----------------------------|----------------------------|
----------------------------|----------------------------|----------------------------|----------------------------|
--9--9-9--9-9--7--7-7--7-7--|--5--5-5--5-5--4--4-4--4-4--|--2--2-2--2-2--2--2-2--2-2--|--4--4-4--4-4--4--4-4--4-4--|
----------------------------|----------------------------|----------------------------|----------------------------|


  E  S E  S E  E  S E  S E     E  S E  S E  E  E  E  E     E  S E  S E  E  S E  S E     E  S E  S E  E  E  E  E   
----------------------------|---------------------------|----------------------------|---------------------------|
----------------------------|---------------------------|----------------------------|---------------------------|
--1--1-1--1-1--0--0-0--0-0--|--1--1-1--1-1--3--x--3--3--|--4--4-4--4-4--3--3-3--3-3--|--4--4-4--4-4--5--x--5--5--|
----------------------------|---------------------------|----------------------------|---------------------------|
----------------------------|---------------------------|----------------------------|---------------------------|


  E  S E  S E  E  S E  S E     E  S E  S E  E  E  E  E   
----------------------------|---------------------------|
----------------------------|---------------------------|
--6--6-6--6-6--5--5-5--5-5--|--6--6-6--6-6--7--x--7--7--|
----------------------------|---------------------------|
----------------------------|---------------------------|


  S  S S S S S S  S S S S S S  S S S    S S S S S S S S S S S S S S S S  
-------------------------------------|----------------------------------|
-------------------------------------|----------------------------------|
--6s-8-8-8-8-8-6s-8-8-8-8-8-6s-8-8-8-|--8-8-8-8-6-6-6-6-4-4-4-4-3-3-3-3-|
-------------------------------------|----------------------------------|
-------------------------------------|----------------------------------|


  E  S E  S E  E  S E  S E     E  S E  S E  E  E  E  E     E  S E  S E  E  S E  S E     E  S E  S E  E  E  E  E   
----------------------------|---------------------------|----------------------------|---------------------------|
----------------------------|---------------------------|----------------------------|---------------------------|
--1--1-1--1-1--0--0-0--0-0--|--1--1-1--1-1--3--x--3--3--|--4--4-4--4-4--3--3-3--3-3--|--4--4-4--4-4--5--x--5--5--|
----------------------------|---------------------------|----------------------------|---------------------------|
----------------------------|---------------------------|----------------------------|---------------------------|


  E  S E  S E  E  S E  S E     E  S E  S E  E  E  E  E   
----------------------------|---------------------------|
----------------------------|---------------------------|
--6--6-6--6-6--5--5-5--5-5--|--6--6-6--6-6--7--x--7--7--|
----------------------------|---------------------------|
----------------------------|---------------------------|


  S  S S S S S S  S S S S S S  S S S     S   S  S  S  S  S  S   S  S  S  S  S  S   S  S  S  
-------------------------------------|-----------------------------------------------------|
-------------------------------------|-----------------------------------------------------|
--6s-8-8-8-8-8-6s-8-8-8-8-8-6s-8-8-8-|--18s-20-20-20-20-20-18s-20-20-20-20-20-18s-20-20-20-|
-------------------------------------|-----------------------------------------------------|
-------------------------------------|-----------------------------------------------------|


  S  S S S S S S  S S S S S S  S S S     S   S  S  S   S  S  S   S  Q    Q       E  S S S S E  E  S S Q      
-------------------------------------|----------------------------------------|-----8---7------------------||
-------------------------------------|----------------------------------------|--5----5---5----8--6---5----||
--6s-8-8-8-8-8-6s-8-8-8-8-8-6s-8-8-8-|--18s-20-20-18s-20-20-18s-20-20---------|-------------6-------6------||
-------------------------------------|----------------------------------------|----------------------------||
-------------------------------------|----------------------------------------|----------------------------||
Login or Register to remove this ad.