Ads

Love You (Bob's Game) Guitar Tab

Submitted: Apr 21, 2009 by Rain

0
Download | Listen
Game: Bob's Game
Composer(s): Robert Pelloni
Style: Transcription

AutoScroll: Slow | Medium | Fast
Easy song, good for beginners I guess

The high pitched guitar:

E--8-8---8-10--------8-7-8-10-8----16-h18-p16-p14----------------
B-----------------10---------------------------------------------
G----------------------------------------------------------------
D----------------------------------------------------------------
A----------------------------------------------------------------
E----------------------------------------------------------------


E--8-7-8-10-8----------------8-7-8-10-8--------------------------
B----------------------------------------------------------------
G----------------------------------------------------------------
D----------------------------------------------------------------
A----------------------------------------------------------------
E----------------------------------------------------------------

E--10-p8-----12-10-p8-------15-----------------------------------
B------------------------------------------14-h16-b16-b16--------
G-----------------------12---------------------------------------
D----------------------------------------------------------------
A----------------------------------------------------------------
E----------------------------------------------------------------

E8-8-8-7-8------15-----------------------------------------------
B--------------------------14-h16-16-p14-p12---------------------
G-------------12-------------------------------------------------
D----------------------------------------------------------------
A----------------------------------------------------------------
E----------------------------------------------------------------

E--8-8-7-8-10----------------------------------------------------
B----------------------------------------------------------------
G----------------------------------------------------------------
D----------------------------------------------------------------
A----------------------------------------------------------------
E----------------------------------------------------------------

The background ''noise'' guitar (could possibly be merged with the lead):

Starts at (0:04):

E----------------------------------------------------------------
B-----------------------------------------8------- 8-------------
G---5-4-5---4-3--5-4-5--5-4-5-7-----4-5-7-7--4-5-7-7-------------
D---5-4-5---4-3--5-4-5--5-4-5-7-----4-5-7----4-5-7---------------
A----------------------------------------------------------------
E----------------------------------------------------------------

The background rhythm ''noise'' guitar:
Just keep repeating

E----------------------------------------------------------------
B----------------------------------------------------------------
G-----5////////////////////12-------5/////////////////////12-----
D----------------------------------------------------------------
A----------------------------------------------------------------
E----------------------------------------------------------------

Legend:
h# is a hammer on on the note from the previous note
p# is a pulloff on the note from the previous note
"///" is a slide between the notes at the side
Login or Register to remove this ad.