Blooming Villain (Persona 5) Guitar Tab

Submitted: Jan 20, 2019 by thunderbulb (Last updated: Feb 11, 2019)

4
Average: 4 (1 vote)
Download | No audio :(
Game: Persona 5
Composer(s): Shoji Meguro
Style: Transcription

AutoScroll: Slow | Medium | Fast
Person 5 - Blooming Villain


Post Synth Intro
                   A		          B
e|---------------|----------------------|------------------------------------|
B|---------------|----------------------|------------------------------------|
G|-6-6-6-6-------|----6-------6---------|----6-------6-----------------------|
D|-6-6-6-6-------|--------4-------4---4-|--------4-----4---------------------|
A|-4-4-4-4-------|--4---4---4---4---7---|--4---4---4-----4--7----------------|
E|---------------|----------------------|------------------------------------|

  C
e|---------------------------------------------------------------------------|
B|---------------------------------------------------------------------------|
G|---6-----------------------------------------------------------------------|
D|--------4------------------------------------------------------------------|
A|-4---4-----4--7--4--5-----4------------------------------------------------|
E|-----------------------7---------------------------------------------------|

Riff section, A B A C

Lead / Solo part
   A
e|--------4-4~----7-7--7-9-11b~-9-9------------------------------------------|
B|---4-5-------5--------------------9---9-9-9b-7-5p4-5-7-9-------------------|
G|-6----------------------------------6--------------------------------------|
D|---------------------------------------------------------------------------|
A|---------------------------------------------------------------------------|
E|---------------------------------------------------------------------------|
   B
e|--------4-4~----7-7--7-9-11b~-11b~-11bd--9\7------5/7------------5/7-------|
B|---4-5-------5-------------------------------/9-7-----9~-5h7/9-7-----9-----|
G|-6-------------------------------------------------------------------------|
D|---------------------------------------------------------------------------|
A|---------------------------------------------------------------------------|
E|---------------------------------------------------------------------------|
Login or Register to remove this ad.