Ads

Recollection I (Bleach) Guitar Tab

Submitted: Sep 22, 2012 by scarecrowlol

5
Average: 5 (2 votes)
Download | Listen
Game: Bleach
Composer(s): Yoshiki Muzuo, Ikimono Gakar
Style: Arrangement, Fingerstyle

AutoScroll: Slow | Medium | Fast
Title: Recollection I
SubTitle: Bleach: The DiamondDust Rebellion
Artist: Shiro Sagisu
Music: Tabbed by Mitch Jackson
Tempo = 68

Capo 3

     ^           ^                            ^                            ^                            ^              
     E  E  E  E  H                E  E  E  E  H                E  E  E  E  H                E  E  E  E  H
E |--7--5--0--5--0-------------|--7--5--0--5--0-------------|--7--5--0--5--0-------------|--7--5--0--5--0-------------|
B |--5--3-----3----------------|--5--3-----3----------------|--5--3--0--3----------------|--5--3-----3----------------|
G |--------2-----2-------------|--------2-----2-------------|--------2-----2-------------|--------2-----2-------------|
D |--7--5--0--5--0-------------|--------0-------------------|-----0-----0----------------|--------5-------------------|
A |----------------------------|-----2-----2----------------|----------------------------|-----2-----2----------------|
E |----------------------------|--0-----------0-------------|--3-----------3-------------|--0-----------0-------------|

                      
                                  ^                                                         ^
     E  E  S S S S E  E  E  E     E  E  E  E  Q.       S S     E  E  E  S S E  E  E  E      E  E  E  S S Q     Q                                                       
  |----------------------------|----------------------------|----------------------------|----------------------------|
  |--0-----0-1-0-1-3--1--0-----|--------------3--------0----|----------------------------|--0----------0-------3------|
  |-----2------2------------2--|--0-----2----------------2--|--------2---------------0---|--2-----5--2---2------------|
  |--------2-------------------|--2-------------------------|--2--------2-0-------2------|--2--2-----2----------------|
  |-----3----------------------|--2--2-----2----------------|-----5---------2--3---------|--0------------0------------|
  |--1-------------1--------1--|--0-----------0-------------|--3------------3------------|----------------------------|

                                                   
     ^                                                         ^
     E  E  E  E  E  E  Q          E  E  E  E  E  E  Q          E  E  E  E  Q     Q          E  E  E  E  H                                          
  |--0-------------------------|----------------------------|----------------------------|----------------------------|
  |--------0-----------3-------|--0-------------------------|----------------------------|--0-------------------------|
  |--2-----0-----2-----0-------|--------------------2-------|--0-------------------------|-----2-----2----------------|
  |----------------------------|--------4-----2-------------|--0-----0-----------0-------|--------2-----2-------------|
  |-----3-----3-----3----------|-----2-----2-----2----------|-----0--------0-------------|--2-------------------------|
  |--1-----------1-------------|--0-----------0-------------|--3--------3----------------|--0-------------------------|

                                                         
                                                                                                              ^              
     E  E  E  E  Q     E  E       Q     E  E  Q     Q          E  E  E  E  Q     E  E       Q     E  E  Q     E  S S                                            
  |--------0-----0-------------|--------------------3-------|--------0-----0-------------|--------------------3-------|
  |-----------3--------0-------|--------------3-----3-------|-----------3--------0-------|-----------3----------------|
  |-----0-----------------0----|--2-----------------0-------|-----0-----------------0----|--2-----------2-----0--0----|
  |--2-------------------------|--0-----0--2----------------|--2-------------------------|--0-----0----------------4--|
  |--3-------------------------|--2-----------------2-------|--3-------------------------|--2-----------------2-------|
  |--1-------------------------|--0-----------------0-------|--1-------------------------|--0-----------------0-------|

                             
                                                    ^                                        ^
     S S E  E  S S E  E  Q        E  E  E  E  Q     Q          Q     S S S Q      S Q        W                                                
  |----------------------------|----------------------------|--------------0L-----L-------|---------------------------||
  |----------------------------|--------------------4-------|-----------------------------|--0------------------------||
  |--0-------------------------|--0-----------------2-------|-----------------------------|--2------------------------||
  |----4-2-----0---------------|--------2-------------------|--------------2L-----L-------|--2------------------------||
  |--0------2----3-2--0--------|-----2-----2--------2-------|--------0-2-0-0L-----L-------|--0------------------------||
  |--0-------------------0-----|--0-----------0-------------|--0--------------------0-----|--0------------------------||

                       
Login or Register to remove this ad.