Ads

Fade to Black A02 (Bleach) Guitar Tab

Submitted: Jan 04, 2013 by scarecrowlol

5
Average: 5 (2 votes)
Download | Listen
Game: Bleach
Composer(s): Yoshiki Muzuo, Ikimono Gakar
Style: Arrangement, Fingerstyle

AutoScroll: Slow | Medium | Fast
Title: Fade To Black A02
SubTitle: Bleach
Artist: Shiro Sagisu
Tabber: Mitch Jackson
Tempo = 60

KEY:
 
S - Slapping (bass)
g - Grace Note
b - Bend


      S     S          S     S          S     S          S     S          S     S    
      H     H          H     H          H     H          H     H          Q  Q  Q  Q    
D ||----------------|----------------|----------------|----------------|----------------|
A ||----------------|----------------|----------------|----------------|----------------|
F ||o---------------|----------------|----------------|----------------|-----9-----9----|
C ||o---------------|----------------|----------------|----------------|-----9-----9----|
G ||--6-----6-------|--0-----0-------|--6-----6-------|--0-----0-------|--6-----6-------|
C ||--6-----6-------|--0-----0-------|--6-----6-------|--0-----0-------|--6-----6-------|


      S     S          S     S          S     S          S     S          S     S 
      Q  Q  Q  Q       Q  Q  Q  Q       Q  Q  Q  Q       Q  Q  Q  Q       Q  Q  Q  Q 
   |----------------|----------------|----------------|----------------|----------------|
   |----------------|-----8-----8----|-----9-----9----|----------------|----------------|
   |-----10----10---|-----7-----7----|-----8-----8----|-----9-----9----|-----10----10---|
   |-----10----10---|----------------|----------------|-----9-----9----|-----10----10---|
   |--0-----0-------|--6-----6-------|--0-----0-------|--6-----6-------|--0-----0-------|
   |--0-----0-------|--6-----6-------|--0-----0-------|--6-----6-------|--0-----0-------|


      S     S          S     S           
      Q  Q  Q  Q       Q  Q  Q  Q       Q  Q  Q  Q       Q    Q  Q  Q     Q  Q  Q  Q     
   |----------------|----------------|----------------|----------------|----------------|
   |-----8-----8----|-----9-----9----|----------------|-----7g9--7-----|----------------|
   |-----7-----7----|-----8-----8----|----------------|----------------|----------------|
   |----------------|----------------|-----10-7--9----|--10---------10-|-----10-7--9----|
   |--6-----6-------|--0-----0-------|--6-----6-------|--0-------0-----|--6-----6-------|
   |--6-----6-------|--0-----0-------|--6-----6-------|--0-------0-----|--6-----6-------|



      Q    Q  Q  Q     Q  Q  Q  Q       Q    Q  Q  Q     Q  Q  Q  Q       Q    Q  Q  Q    
   |-------------8b-|----------------|----------------|----------------|-------------8b-||
   |-----7g9--7-----|----------------|-----7g9--7-----|----------------|-----7g9--7-----||
   |----------------|----------------|----------------|----------------|---------------o||
   |--10------------|-----10-7--9----|--10---------10-|-----10-7--9----|--10-----------o||
   |--0-------0-----|--6-----6-------|--0-------0-----|--6-----6-------|--0-------0-----||
   |--0-------0-----|--6-----6-------|--0-------0-----|--6-----6-------|--0-------0-----||
                                                                             

      S     S          S     S          S     S          S     S
      H     H          H     H          H     H          H     H          W
   |----------------|----------------|----------------|----------------|----------------||
   |----------------|----------------|----------------|----------------|----------------||
   |----------------|----------------|----------------|----------------|----------------||
   |----------------|----------------|----------------|----------------|----------------||
   |--6-----6-------|--0-----0-------|--6-----6-------|--0-----0-------|--L-------------||
   |--6-----6-------|--0-----0-------|--6-----6-------|--0-----0-------|--L-------------||

Login or Register to remove this ad.