Into The Fire (Guitar Version) (Bleach: Memories of Nobody) Guitar Tab

Submitted: Oct 29, 2016 by Coolbreeze

0
Download | Listen
Game: Bleach: Memories of Nobody
Composer(s): Shiro Sagisu
Style: Transcription

AutoScroll: Slow | Medium | Fast
			     Into the Fire (Guitar Ver.)
			~Bleach : Memories of Nobody O.S.T~

Music by Shirou Sagisu
Tabbed by Coolbreeze
Tempo = 77


       Q    Q    Q        H        Q        Q    Q    Q        H        Q     
E||---11----9----8----|------------8----|--11----9----8----|------------8----|
B||-------------------|--11-------------|------------------|--11-------------|
G||*------------------|-----------------|------------------|-----------------|
D||*------------------|-----------------|------------------|-----------------|
A||-------------------|-----------------|------------------|-----------------|
E||-------------------|-----------------|------------------|-----------------|


   Q    Q     Q       H        Q        H.              H.              
--11----9----------|----------------|--13------------|----------------||
-------------11----|--8--------9----|----------------|----------------||
-------------------|----------------|----------------|---------------*||
-------------------|----------------|----------------|---------------*||
-------------------|----------------|----------------|----------------||
-------------------|----------------|----------------|----------------||


  Q    Q    Q       H        Q       H.              H.            
-----------------|----------------|---------------|---------------|
------------6----|----------------|---------------|---------------|
--6----8---------|--6--------5----|--5------------|---------------|
-----------------|----------------|---------------|--8------------|
-----------------|----------------|---------------|---------------|
-----------------|----------------|---------------|---------------|


  Q    Q    E.   S     Q    Q     Q       H        Q        H.            
-------------------|--11----8----------|----------------|--13------------|
-------6----7s---9-|-------------11----|--8--------9----|----------------|
--8----------------|-------------------|----------------|----------------|
-------------------|-------------------|----------------|----------------|
-------------------|-------------------|----------------|----------------|
-------------------|-------------------|----------------|----------------|


   Q    Q    E    E      Q     Q     Q        H         Q        H.            
---------------------|--16----14----13----|--10--------11----|--14------------|
--------7----9s--14--|--------------------|------------------|----------------|
--10-----------------|--------------------|------------------|----------------|
---------------------|--------------------|------------------|----------------|
---------------------|--------------------|------------------|----------------|
---------------------|--------------------|------------------|----------------|


   H.              H.              H.              H.            
--13------------|--8------------|--9------------|---------------|
----------------|---------------|---------------|---------------|
----------------|---------------|---------------|---------------|
----------------|---------------|---------------|---------------|
----------------|---------------|---------------|---------------|
----------------|---------------|---------------|---------------|


  H.              H.              H.              H.              H.            
---------------|---------------|---------------|---------------|---------------|
---------------|---------------|---------------|---------------|---------------|
---------------|---------------|---------------|---------------|---------------|
---------------|---------------|---------------|---------------|---------------|
---------------|---------------|---------------|---------------|---------------|
---------------|---------------|---------------|---------------|---------------|


  H.              H.              H        E   E        Q    Q    Q     
---------------|---------------|--------------11--||---11----9----8----|
---------------|---------------|------------------||-------------------|
---------------|---------------|------------------||*------------------|
---------------|---------------|------------------||*------------------|
---------------|---------------|------------------||-------------------|
---------------|---------------|------------------||-------------------|


   H        Q        Q    Q    Q        H        Q        Q    Q     E.   S  
------------8----|--11----9----8----|------------8----|--11----9------------|
--11-------------|------------------|--11-------------|-------------11s---9-|
-----------------|------------------|-----------------|---------------------|
-----------------|------------------|-----------------|---------------------|
-----------------|------------------|-----------------|---------------------|
-----------------|------------------|-----------------|---------------------|


  H        E.    S     H.              H.                H.            
-------------------|--13------------|----------------||---------------|
--8--------9s---11-|----------------|----------------||---------------|
-------------------|----------------|---------------*||---------------|
-------------------|----------------|---------------*||---------------|
-------------------|----------------|----------------||---------------|
-------------------|----------------|----------------||---------------|


  H.              Q    Q    Q       H        Q       H        E.  T  T   
---------------|-----------------|----------------|---------------------|
---------------|------------7----|----------------|---------------------|
---------------|--7----9---------|--7--------6----|--6------------7p-6h-|
---------------|-----------------|----------------|---------------------|
---------------|-----------------|----------------|---------------------|
---------------|-----------------|----------------|---------------------|


  H.              Q    Q    E    E      Q    Q     Q       H         Q     
---------------|--------------------|--12----9----------|-----------------|
---------------|--5----7----8s--11--|-------------12----|--9--------10----|
--4------------|--------------------|-------------------|-----------------|
---------------|--------------------|-------------------|-----------------|
---------------|--------------------|-------------------|-----------------|
---------------|--------------------|-------------------|-----------------|


   H        E   E      Q    Q     E    E      Q     Q     Q     
--14---------------|----------------------|--17----15----14----|
-------------------|--------8----10s--14--|--------------------|
---------------11--|--11------------------|--------------------|
-------------------|----------------------|--------------------|
-------------------|----------------------|--------------------|
-------------------|----------------------|--------------------|


   H         Q        H         Q        H.              H.            
--11--------12----|--15--------15----|--14------------|--9------------|
------------------|------------------|----------------|---------------|
------------------|------------------|----------------|---------------|
------------------|------------------|----------------|---------------|
------------------|------------------|----------------|---------------|
------------------|------------------|----------------|---------------|


   H.              H.              Q    Q     E.   S    H        Q     
--10------------|---------------|--------------------|----------------|
----------------|---------------|--------------------|----------------|
----------------|---------------|--7----9----11s---9-|--7--------6----|
----------------|---------------|--------------------|----------------|
----------------|---------------|--------------------|----------------|
----------------|---------------|--------------------|----------------|


  H        E.  T  T     H        Q       Q    Q    E.    S  
---------------------|----------------|--------------------|
---------------------|----------------|--5----7----8s---10-|
--6------------7p-6h-|--4--------4----|--------------------|
---------------------|----------------|--------------------|
---------------------|----------------|--------------------|
---------------------|----------------|--------------------|


   Q    Q     E.    S    H         Q        H.              Q    Q     E    E   
--12----9-------------|-----------------|--14------------|---------------------|
-------------12s---10-|--9--------10----|----------------|--7----8----10s--14--|
----------------------|-----------------|----------------|---------------------|
----------------------|-----------------|----------------|---------------------|
----------------------|-----------------|----------------|---------------------|
----------------------|-----------------|----------------|---------------------|


   Q     Q     Q        H         Q        H         Q        H.            
--17----15----14----|--11--------12----|--15--------15----|--14------------|
--------------------|------------------|------------------|----------------|
--------------------|------------------|------------------|----------------|
--------------------|------------------|------------------|----------------|
--------------------|------------------|------------------|----------------|
--------------------|------------------|------------------|----------------|


  H           E   E     Q     H            H.              H.            
--9--------10g9------|--9----12--------|--10------------|---------------|
-----------------12--|-----------------|----------------|---------------|
---------------------|-----------------|----------------|---------------|
---------------------|-----------------|----------------|---------------|
---------------------|-----------------|----------------|---------------|
---------------------|-----------------|----------------|---------------|


  H.              H.              H.              H.              H.            
---------------|---------------|---------------|---------------|---------------|
---------------|---------------|---------------|---------------|---------------|
---------------|---------------|---------------|---------------|---------------|
---------------|---------------|---------------|---------------|---------------|
---------------|---------------|---------------|---------------|---------------|
---------------|---------------|---------------|---------------|---------------|


  H.             
---------------||
---------------||
---------------||
---------------||
---------------||
---------------||
Login or Register to remove this ad.

1 comment on Into The Fire (Guitar Version)

Hmm I forgot this song was in

Hmm I forgot this song was in that movie, Shiro Sagisu really is flexible with his compositions. Solid work Coolbreeze any other Bleach tabs in the work?

I found the lead guitar notes for Fiesta De Guerra about a year a go and have been on the hunt for more since then. lol