Stage 2 (SongeLeReveur Version) (Battletoads & Double Dragon: The Ultimate Team) Bass/Guitar Tab

Submitted: Jul 26, 2010 by ForestMarth (Last updated: Jul 27, 2010)

0
Download | Listen
Game: Battletoads & Double Dragon: The Ultimate Team
Composer(s): Dave Wise
Style: 2 or more instruments, Arrangement, Transcription

AutoScroll: Slow | Medium | Fast
                    Battletoads & Double Dragon: The Ultimate Team - Stage 2


Composed by : Dave Wise (sometimes he's also called David Wise)

Arranged by : Songe Le Rêveur

Tabbed by : ForestMarth

Platform : NES (originally)


I'm sorry but rythm is not respected (here and in the Guitar Pro file).
Don't hesitate to take this tab and put it rythm ! :-)
Look at SongeLeReveur video to hear the rythm.

I'm also sorry concerning the tab for the synthesizer.
I guess anyone could do better but I did my best !



Guitar 1



               
E||--12--12--12--12--12----12------12--12--12--12-----------
B||--12--12--12--12--12----12------12--12--12--12-----------
G||--11--11--11--11--11----11------11--11--11--11-----------
D||---------------------------------------------------------
A||---------------------------------------------------------
E||---------------------------------------------------------


            
--12--12--12--12--12----12------12--12--12--12-----------
--12--12--12--12--12----12------12--12--12--12-----------
--11--11--11--11--11----11------11--11--11--11-----------
---------------------------------------------------------
---------------------------------------------------------
---------------------------------------------------------


      
--10--10--10--10--10----10------10--10--10--10--10s--12--12--12--
--10--10--10--10--10----10------10--10--10--10--10s--12--12--12--
---9---9---9---9---9-----9-------9---9---9---9---9s--11--11--11--
-----------------------------------------------------------------
-----------------------------------------------------------------
-----------------------------------------------------------------


        
--12----12----12--12--12--12----10--10--10--10--10----10----
--12----12----12--12--12--12----10--10--10--10--10----10----
--11----11----11--11--11--11-----9---9---9---9---9-----9----
------------------------------------------------------------
------------------------------------------------------------
------------------------------------------------------------


        
--10--10--10--10--10s--12--12--12----12----12----12----12----
--10--10--10--10--10s--12--12--12----12----12----12----12----
---9---9---9---9---9s--11--11--11----11----11----11----11----
-------------------------------------------------------------
-------------------------------------------------------------
-------------------------------------------------------------


            
-----------------------(0)-----------------------------
----------------(7)-------------(7)--------------------
---------(7)---------------------------(7)-------------
--(9)--------------------------------------------------
-------------------------------------------------------
-------------------------------------------------------


            
-----------------------(0)-----------------------------
----------------(7)------------------------------------
---------(7)--------------------(7)--------------------
--(9)----------------------------------(9)-------------
-------------------------------------------------------
-------------------------------------------------------


            
-----------------------(0)-----------------------------
----------------(7)-------------(7)--------------------
---------(7)---------------------------(7)-------------
--(9)--------------------------------------------------
-------------------------------------------------------
-------------------------------------------------------


            
-----------------------(0)-----------------------------
----------------(7)------------------------------------
---------(7)--------------------(7)--------------------
--(9)----------------------------------(9)-------------
-------------------------------------------------------
-------------------------------------------------------


        
--10--10--10--10--10--10---------12--12--12--12--12--12-------
--10--10--10--10--10--10---------12--12--12--12--12--12-------
---9---9---9---9---9---9---------11--11--11--11--11--11-------
--------------------------------------------------------------
--------------------------------------------------------------
--------------------------------------------------------------


        
--10--10--10--10--10--10---------12--12--12--12--12--12-------
--10--10--10--10--10--10---------12--12--12--12--12--12-------
---9---9---9---9---9---9---------11--11--11--11--11--11-------
--------------------------------------------------------------
--------------------------------------------------------------
--------------------------------------------------------------


            
--12--12--12--12--12----12------12--12--12--12-----------
--12--12--12--12--12----12------12--12--12--12-----------
--11--11--11--11--11----11------11--11--11--11-----------
---------------------------------------------------------
---------------------------------------------------------
---------------------------------------------------------


            
--12--12--12--12--12----12------12--12--12--12-----------
--12--12--12--12--12----12------12--12--12--12-----------
--11--11--11--11--11----11------11--11--11--11-----------
---------------------------------------------------------
---------------------------------------------------------
---------------------------------------------------------


      
--10--10--10--10--10----10------10--10--10--10--10s--12--12--12--
--10--10--10--10--10----10------10--10--10--10--10s--12--12--12--
---9---9---9---9---9-----9-------9---9---9---9---9s--11--11--11--
-----------------------------------------------------------------
-----------------------------------------------------------------
-----------------------------------------------------------------


        
--12----12----12--12--12--12----10--10--10--10--10----10----
--12----12----12--12--12--12----10--10--10--10--10----10----
--11----11----11--11--11--11-----9---9---9---9---9-----9----
------------------------------------------------------------
------------------------------------------------------------
------------------------------------------------------------


        
--10--10--10--10--10s--12--12--12----12----12----12----12----
--10--10--10--10--10s--12--12--12----12----12----12----12----
---9---9---9---9---9s--11--11--11----11----11----11----11----
-------------------------------------------------------------
-------------------------------------------------------------
-------------------------------------------------------------


        
--14-----------14----14------14----17----17----14----
--14h----15----15----15------15----15----15----15----
--14-----------14----14------14----14----14----14----
--14h----16----16----16------16----16----16----16----
--14-----------14----14------14----14----14----14----
-----------------------------------------------------


        
--10s----12----12----12------12----10----10----7----
--10s----12----12----12------12----10----10----7----
---9s----11----11----11------11-----9-----9----7----
----------------------------------------------------
----------------------------------------------------
----------------------------------------------------


        
--14-----------14----14------17----17----17----14----
--14h----15----15----15------15----15----15----15----
--14-----------14----14------14----14----14----14----
--14h----16----16----16------16----16----16----16----
--14-----------14----14------14----14----14----14----
-----------------------------------------------------


        
--10s----12----12----12------12----10----10----7----
--10s----12----12----12------12----10----10----7----
---9s----11----11----11------11-----9-----9----7----
----------------------------------------------------
----------------------------------------------------
----------------------------------------------------


        
--14-----------14----14------17----17----17----14----
--14h----15----15----15------15----15----15----15----
--14-----------14----14------14----14----14----14----
--14h----16----16----16------16----16----16----16----
--14-----------14----14------14----14----14----14----
-----------------------------------------------------


        
--10s----12----12----12------12----10----10----7----
--10s----12----12----12------12----10----10----7----
---9s----11----11----11------11-----9-----9----7----
----------------------------------------------------
----------------------------------------------------
----------------------------------------------------


        
--14-----------14----14------17----17----17----14----
--14h----15----15----15------15----15----15----15----
--14-----------14----14------14----14----14----14----
--14h----16----16----16------16----16----16----16----
--14-----------14----14------14----14----14----14----
-----------------------------------------------------


               
--10s----12----12----12------12----10----10----7------7\-----------------|
--10s----12----12----12------12----10----10----7------7\-----------------|
---9s----11----11----11------11-----9-----9----7------7\-----------------|
-------------------------------------------------------------------------|
-------------------------------------------------------------------------|
-------------------------------------------------------------------------|




Guitar 2



          
E||-----------------------------------------------------
B||-------------10----12--------------------10----12----
G||--9----11------------------------10--11--------------
D||---------------------------12------------------------
A||-----------------------------------------------------
E||-----------------------------------------------------


       
------------------------------------------------------
-------10g12----12-----------10g12----10----9---------
------------------------------------------------------
------------------------------------------------------
------------------------------------------------------
------------------------------------------------------


           
-----------14-------------------------------------------
-------------------------------------14----14br---------
--14g16----------16----14-------------------------------
-------------------------------16-----------------------
--------------------------------------------------------
--------------------------------------------------------


               
-------------------------------------------14--------
-----------15----------14------15----17--------------
--14g16----------16----------------------------------
-----------------------------------------------------
-----------------------------------------------------
-----------------------------------------------------


           
-----------14-------------------------------------------
-------------------------------------14----14br---------
--14g16----------16----14-------------------------------
-------------------------------16-----------------------
--------------------------------------------------------
--------------------------------------------------------


           
--17g19----19------------------------17----------17----
-----------------15----18------19----------19----------
-------------------------------------------------------
-------------------------------------------------------
-------------------------------------------------------
-------------------------------------------------------


        
--18----19------------------------14----------------
----------------------------------------------------
-------------------------14g16----------16----14----
----------------------------------------------------
----------------------------------------------------
----------------------------------------------------


        
--------------------------------------------------------
--------14----14br--------------------15----------14----
-----------------------------14g16----------16----------
--16----------------------------------------------------
--------------------------------------------------------
--------------------------------------------------------


        
--------------14-------------------14----------------
--15----17-------------------------------------------
--------------------------14g16----------16----14----
-----------------------------------------------------
-----------------------------------------------------
-----------------------------------------------------


        
--------------------------------------------15g17----17----
--------14----14br--------------------15-------------------
-----------------------------15s--16-----------------------
--16-------------------------------------------------------
-----------------------------------------------------------
-----------------------------------------------------------


            
-----------------------------------------------------------
--12g15----12------------12------14b----14----12----15b----
-----------------14--14------------------------------------
-----------------------------------------------------------
-----------------------------------------------------------
-----------------------------------------------------------


        
--------------------------------------------------------
--14b----12------------12------14b----14----12----------
---------------14--14-----------------------------14----
--------------------------------------------------------
--------------------------------------------------------
--------------------------------------------------------


         
---------------------------------------------------------
--14b----12------------12------14b----14----12----15b----
---------------14--14------------------------------------
---------------------------------------------------------
---------------------------------------------------------
---------------------------------------------------------


                    
---------------------------------------------------------------------------
--14b----12------------12------14b----14----12-----------------------------
---------------14--14-----------------------------14-----------------------
---------------------------------------------------------------------------
---------------------------------------------------------------------------
---------------------------------------------------------------------------


        
-----------------------------------------------------------------10----11----
-------------------10------------10----12----10------11----12----------------
--------9----11------------11------------------------------------------------
--12-------------------------------------------------------------------------
-----------------------------------------------------------------------------
-----------------------------------------------------------------------------


        
--12----------------------------------------------------------------------
----------------------------------10----12--------------------10----12----
-----------------------9----11------------------------10--11--------------
------------------------------------------------12------------------------
--------------------------------------------------------------------------
--------------------------------------------------------------------------


           
---------------------------------------------------
-------10g12----12-----------10br----9-------------
---------------------------------------------------
---------------------------------------------------
---------------------------------------------------
---------------------------------------------------


           
-----------14-------------------------------------------
-------------------------------------14----14br---------
--14g16----------16----14-------------------------------
-------------------------------16-----------------------
--------------------------------------------------------
--------------------------------------------------------


               
-------------------------------------------14--------
-----------15----------14------15----17--------------
--14g16----------16----------------------------------
-----------------------------------------------------
-----------------------------------------------------
-----------------------------------------------------


           
-----------14-------------------------------------------
-------------------------------------14----14br---------
--14g16----------16----14-------------------------------
-------------------------------16-----------------------
--------------------------------------------------------
--------------------------------------------------------


           
--17g19----19------------------------17----------17----
-----------------15----18------19----------19----------
-------------------------------------------------------
-------------------------------------------------------
-------------------------------------------------------
-------------------------------------------------------


        
--18----19------------------------14----------------
----------------------------------------------------
-------------------------14g16----------16----14----
----------------------------------------------------
----------------------------------------------------
----------------------------------------------------


        
--------------------------------------------------------
--------14----14br--------------------15----------14----
-----------------------------14g16----------16----------
--16----------------------------------------------------
--------------------------------------------------------
--------------------------------------------------------


        
--------------14-------------------14----------------
--15----17-------------------------------------------
--------------------------14g16----------16----14----
-----------------------------------------------------
-----------------------------------------------------
-----------------------------------------------------


        
--------------------------------------------15g17----17----
--------14----14br--------------------15-------------------
-----------------------------15s--16-----------------------
--16-------------------------------------------------------
-----------------------------------------------------------
-----------------------------------------------------------


                                                               
--19-----------------|
---------------------|
---------------------|
---------------------|
---------------------|
---------------------|




Bass



          
G||------------------------------------------------------------------
D||------------------------------------------------------------------
A||--2----2---------2------------------------------------------------
E||------------5-----------2----1----0----0------0----2----5----2----


       
-----------------------------------------------------------------
-----------------------------------------------------------------
-----------------------2----2---------2--------------------------
--5----2-------------------------5-----------2----1----0----0----


       
------------------------------------------------------------------
------------------------------------------------------------------
----------------------------------------------2----2---------2----
--0----2----xg5----2------5-----------------------------5---------


           
-----------------------------------------------------------------
-----------------------------------------------------------------
-----------------------------------------------------------------
--2----1----0----0------0----2----5----2------5----2-------------


       
--------------------------------------------------------------------
--------------------------------------------------------------------
--2----2---------2--------------------------------------------------
------------5-----------2----1----0----0------0----2----xg5----2----


       
----------------------------------------------------------------
----------------------------------------------------------------
----------------------2----2---------2--------------------------
--5-----------------------------5-----------2----1----0----0----


       
-----------------------------------------------------------------
-----------------------------------------------------------------
---------------------------------------------2----2---------2----
--0----2----5----2------5----2-------------------------5---------


              
------------------------------------------------------------------
------------------------------------------------------------------
------------------------------------------------------------------
--2----1----0----0------0----2----xg5----2------5-----------------


       
------------------------------------------------------------------------
------------------------------------------------------------------------
--2----2----------------------------------------------------------------
------------0g5----5------5----3----3----xg3------xg3----2----2---------


       
------------------------------------------------------------------------
------------------------------------------------------------------------
--2----2----------------------------------------------------------------
------------0g5----5------5----3----3----xg3------xg3----3----5---------


       
------------------------------------------------------------------------
------------------------------------------------------------------------
--2----2----------------------------------------------------------------
------------0g5----5------5----3----3----xg3------xg3----2----2---------


       
------------------------------------------------------------------------
------------------------------------------------------------------------
--2----2----------------------------------------------------------------
------------0g5----5------5----3----3----xg3------xg3----3----5---------


       
------------------------------------------------------------------
------------------------------------------------------------------
--2----2----2----0------2----2----5----4------2-------------------
---------------------------------------------------5----5----2----


       
-----------------------------------------------------------------
-----------------------------------------------------------------
-----------------------2----2----2----0------2----2----5----4----
--5----5---------------------------------------------------------


       
-----------------------------------------------------------------
-----------------------------------------------------------------
--2------------------------------------------2----2----2----0----
-------5----5----2------5----5-----------------------------------


           
-----------------------------------------------------------------
-----------------------------------------------------------------
--2----2----5----4------2----------------------------------------
-----------------------------5----5----2------5----5-------------


       
------------------------------------------------------------------
------------------------------------------------------------------
--2----2----2----0------2----2----5----4------2-------------------
---------------------------------------------------5----5----2----


       
--------------------------------------------------------------
--------------------------------------------------------------
------------------------------------------2----2---------2----
--5----5--------------------------------------------5---------


           
-----------------------------------------------------------------
-----------------------------------------------------------------
-----------------------------------------------------------------
--2----1----0----0------0----2----5----2------5----2-------------


       
--------------------------------------------------------------------
--------------------------------------------------------------------
--2----2---------2--------------------------------------------------
------------5-----------2----1----0----0------0----2----xg5----2----


       
----------------------------------------------------------------
----------------------------------------------------------------
----------------------2----2---------2--------------------------
--5-----------------------------5-----------2----1----0----0----


       
-----------------------------------------------------------------
-----------------------------------------------------------------
---------------------------------------------2----2---------2----
--0----2----5----2------5----2-------------------------5---------


              
------------------------------------------------------------------
------------------------------------------------------------------
------------------------------------------------------------------
--2----1----0----0------0----2----xg5----2------5-----------------


       
------------------------------------------------------------------
------------------------------------------------------------------
--2----2---------2------------------------------------------------
------------5-----------2----1----0----0------0----2----5----2----


       
-----------------------------------------------------------------
-----------------------------------------------------------------
-----------------------2----2---------2--------------------------
--5----2-------------------------5-----------2----1----0----0----


       
--------------------------------------------------------------------
--------------------------------------------------------------------
----------------------------------------------2----2----------------
--0----2----xg5----2------5-----------------------------0g5----5----


       
------------------------------------------------------------------------
------------------------------------------------------------------------
--------------------------------------------------2----2----------------
--5----3----3----xg3------xg3----2----2---------------------0g5----5----


       
------------------------------------------------------------------------
------------------------------------------------------------------------
--------------------------------------------------2----2----------------
--5----3----3----xg3------xg3----3----5---------------------0g5----5----


       
------------------------------------------------------------------------
------------------------------------------------------------------------
--------------------------------------------------2----2----------------
--5----3----3----xg3------xg3----2----2---------------------0g5----5----


               
--------------------------------------------------------------------|
--------------------------------------------------------------------|
--------------------------------------------------2-----------------|
--5----3----3----xg3------xg3----3----5-----------------------------|




Synthesizer



           
E||--------------------------------------------------
B||--------------------------------------------------
G||--------------------------------------------------
D||--7--7--9----7----6------7--7--9----(7)----(7)----
A||--9--9--7----9----7------9--9--7----(9)----(9)----
E||--------------------------------------------------


         
------------------------------------------------------------
------------------------------------------------------------
--(7)----(6)----(4)----(6)------(7)----(6)----(4)----(6)----
---4------2------0------2--------4------2------0------2-----
---5------4------2------4--------5------4------2------4-----
------------------------------------------------------------


         
------------------------------------------------------------
------------------------------------------------------------
--(7)----(6)----(4)----(6)------(7)----(6)----(4)----(6)----
---4------2------0------2--------4------2------0------2-----
---5------4------2------4--------5------4------2------4-----
------------------------------------------------------------


         
-------------------0-----------------------------------------------0----
--2g3----2----------------2g3----2----------------2g3----2--------------
--------------4-----------------------4----2------------------4---------
------------------------------------------------------------------------
------------------------------------------------------------------------
------------------------------------------------------------------------


          
--------------------------------------------------------------------------
--2g3----2----------------------------------------------------------------
--------------4----2------------------------------------------------------
--------------------------7--7--9----7----6------7--7--9----(7)----(7)----
--------------------------9--9--7----9----7------9--9--7----(9)----(9)----
--------------------------------------------------------------------------


         
------------------------------------------------------------
------------------------------------------------------------
--(7)----(6)----(4)----(6)------(7)----(6)----(4)----(6)----
---4------2------0------2--------4------2------0------2-----
---5------4------2------4--------5------4------2------4-----
------------------------------------------------------------


         
------------------------------------------------------------
------------------------------------------------------------
--(7)----(6)----(4)----(6)------(7)----(6)----(4)----(6)----
---4------2------0------2--------4------2------0------2-----
---5------4------2------4--------5------4------2------4-----
------------------------------------------------------------


                                                              
-----------------------|
-----------------------|
--(7)\-----------------|
---4\------------------|
---5\------------------|
-----------------------|




Tablature Legend
----------------
L - tied note
x - dead note
g - grace note
(n) - ghost note
> - accentuded note
NH - natural harmonic
AH - artificial harmonic
TH - tapped harmonic
SH - semi harmonic
PH - pitch harmonic
h - hammer on
p - pull off
b - bend
br - bendRelease
pb - preBend
pbr - preBendRelease
brb - bendReleaseBend
\n/ - tremolo bar dip
\n - tremolo bar dive
-/n - tremolo bar Release up
/n\ - tremolo bar inverted dip
/n - tremolo bar return
-\n - tremolo bar Release down
S - shift slide
s - legato slide
/ -  slide into from below or out of upwards
\ -  slide into from above or out of downwards
~ - vibrato
W - wide vibrato
tr - trill
TP - tremolo picking
T - tapping
S - slap
P - pop
< - fade in
^ - brush up
v - brush down
Login or Register to remove this ad.