Arcadia (The Battle of Olympus) Bass/Guitar Tab

Submitted: Oct 08, 2011 by auriplane

0
Download | Listen
Game: The Battle of Olympus
Composer(s): Kazuo Sawa
Style: 2 or more instruments, Alternate picking, Transcription

AutoScroll: Slow | Medium | Fast
                            Battle of Olympus - Arcadia GUITAR & BASS TAB
                                      Composed by Kazuo Sawa
              
                              Tabbed by auriplane  ([email protected])
              




                                        FIRST GUITAR - MELODY

e |------------------------|------11----------------|------------------------|------10----------------| \
B |8--7--8--9--8-----------|8-----------8-----------|---------8--9-----8-----|------------------------|  \
G |------------------10----|------------------------|10-8--10----------------|10----------10----------|   |
D |------------------------|------------------------|------------------------|------------------------|   |
A |------------------------|------------------------|------------------------|------------------------|   |
E |------------------------|------------------------|------------------------|------------------------|   |
                                                                                                          > x2
e |------------------------|------------------------|------------------------|------------------------|   |
B |------------8-----------|------9-----------------|------------6-----------|------------------------|   |
G |8--7--8--10-------10----|8-----------8-----------|7--6--7--8--------8-----|7-----------------------|   |
D |------------------------|------------------------|------------------------|------------------------|   |
A |------------------------|------------------------|------------------------|------------------------|  /
E |------------------------|------------------------|------------------------|------------------------| /
                                                                                                      
e |------------------8-----|---11-8--11----8--------|------------------------|---13----13-------------|
B |---------8-----------8--|8-----------8--------8--|------------------13----|------13-------13-------|
G |8-----------8--8--------|------------------8-----|10-------13-10-10----13-|13----------13----10-13-|
D |---10-10----------------|------------------------|---10-10----------------|------------------------|
A |------------------------|------------------------|------------------------|------------------------|
E |------------------------|------------------------|------------------------|------------------------|
                                                                                                      
e |------------------------|---15-13-15----13-------|------------------------|------------------------|
B |---------12-------15-12-|------------15----12-15-|13-16-12-15-------------|------------------------|
G |12----------12-12-------|------------------------|------------13-16----13-|---12-------------------|
D |---12-12----------------|------------------------|------------------15----|13----12-15-10-13-9--12-|
A |------------------------|------------------------|------------------------|------------------------|
E |------------------------|------------------------|------------------------|------------------------|
                                                                                                      
e |------------------------|------------------------|
B |------------------------|------------------------|
G |------------------------|------------------------|
D |10----------------------|9-----------------------|
A |------------------------|------------------------|
E |------------------------|------------------------|


                                       SECOND GUITAR - HARMONY

e |------------------------|------8-----------------|------------------------|------6-----------------| \
B |------------------------|------------------------|------------6-----------|------------------------|  \
G |8-----------------7-----|8-----------8-----------|7--5--7--8--------8-----|7-----------7-----------|   |
D |------------------------|------------------------|------------------------|------------------------|   |
A |------------------------|------------------------|------------------------|------------------------|   |
E |------------------------|------------------------|------------------------|------------------------|   |
                                                                                                           > x2
e |------------------------|------------------------|------------------------|------------------------|   |
B |------------------------|------------------------|------------------------|------------------------|   |
G |------------8-----7-----|5-----8-----5-----------|---------5--7-----5-----|------------------------|   |
D |8-----------------------|------------------------|6-----------------------|8-----------------------|   |
A |------------------------|------------------------|------------------------|------------------------|  /
E |------------------------|------------------------|------------------------|------------------------| /
                                                                                                     
e |------------------------|------------------------|------------------------|------------------------|
B |------------------------|------------------------|------------------------|------------------------|
G |------------------------|------------------------|------------------------|------------------------|
D |5--5-----5--5--5-----5--|5--5-----5--5--5-----5--|6--6-----6--6--6-----6--|6--6-----6--6--6-----6--|
A |------------------------|------------------------|------------------------|------------------------|
E |------------------------|------------------------|------------------------|------------------------|
                                                                                                     
e |------------------------|------------------------|------------------------|------------------------|
B |------------------------|------------------------|------------------------|------------------------|
G |4--4-----4--4--4-----4--|4--4-----4--4--4-----4--|------------------------|------------------------|
D |------------------------|------------------------|5--5-----5--3--3-----3--|5-----3-----------------|
A |------------------------|------------------------|------------------------|------------6-----5-----|
E |------------------------|------------------------|------------------------|------------------------|
                                                                                                     
e |------------------------|------------------------|
B |------------------------|------------------------|
G |------------------------|------------------------|
D |5-----------------------|------------------------|
A |------------------------|------------------------|
E |------------------------|------------------------|


                                                  BASS

G |------------------------|------------------------|------------------------|------------------------| \  
D |------------------------|------------------------|------------------------|------------------------|  \ 
A |3-----3-----------------|3-----------------------|1-----1-----------------|1-----------------------|   |
E |------------------3-----|------------------3-----|------------------1-----|------------------1-----|   |
                                                                                                           > x2
G |------------------------|------------------------|------------------------|------------------------|   |
D |1-----1-----------------|1-----------------------|------------------------|------5-----------------|   |
A |------------------1-----|------------------1-----|5-----5-----------------|------------------5-----|  /
E |------------------------|------------------------|------------------4-----|3-----------------------| /
                                                                                                      
G |------------------------|------------------------|------------------------|------------------------|
D |------------------------|------------------------|3--3--3--3--3--3--3--3--|3--3--3--3--3--3--3--3--|
A |3--3--3--3--3--3--3--3--|3--3--3--3--3--3--3--3--|------------------------|------------------------|
E |------------------------|------------------------|------------------------|------------------------|
                                                                                                      
G |------------------------|------------------------|5-----3-----------------|------------------------|
D |5--5--5--5--5--5--5--5--|5--5--5--5--5--5--5--5--|------------6-----3-----|------------------------|
A |------------------------|------------------------|------------------------|6-----5-----3-----2-----|
E |------------------------|------------------------|------------------------|------------------------|
                                                                                                      
G |------------------------|------------------------|
D |------------------------|5-----3-----------------|
A |3-----------3--3--3--3--|------------6-----5-----|
E |------------------------|------------------------|

Login or Register to remove this ad.