Romance II (Baldurs Gate II: Shadows of Amn) Guitar Tab

Submitted: May 13, 2010 by Bhael (Last updated: Apr 12, 2011)

5
Average: 5 (5 votes)
Download | Listen
Game: Baldurs Gate II: Shadows of Amn
Composer(s): Michael Hoenig
Style: Arrangement, Fingerstyle
Series: Baldurs Gate

Click here for a video example.

AutoScroll: Slow | Medium | Fast
                        Romance 2                                     
                    Baldur's Gate II

                     Michael Hoenig




     Q    E  E  E  E  E  E     E  E  E  E  E  E  E  E   
E||-------------------------|-----------------------0--|
B||-------0--1--0-----------|--------0--1--0-----------|
G||----------------2--------|-----2-----------2--------|
D||-------------------2-----|--2-----------------2-----|
A||--0-------------------0--|-----------------------0--|
E||-------------------------|--------------------------|


  E  E  E  E  E  E  E  E     E  E  E  E  E  E  E  E   
-----------------0--------|--------------1--0--------|
--------1-----------------|--0--1--0-----------------|
-----2-----2-----------2--|-----------2-----------3--|
--2-----------2-----2-----|--------------2-----3-----|
-----------------0--------|-----------------1--------|
--------------------------|--------------------------|


  E  E  E  E  E   E   E  E     E  E  E  E  H                     
----------------------------|-----------------------|-----------|
--1--3--1-----3--(3)--------|--1--3--1--------------|-----------|
-----------3-------------3--|-----------3-----------|-----------|
--------------3-------3-----|--------------3--------|-----------|
------------------1---------|-----------------------|-----------|
----------------------------|-----------------------|-----------|


  E  E  E  E  E  E  E  E     E  E  E  E  E  E  E  E   
--0-----------------------|-----------------------0--|
-----------0--1-----------|--------------------------|
--------2--------4--2-----|-----------0--2--0--------|
-----2-----------------2--|--------3-----------3-----|
--0-----------------------|-----3-----------------3--|
--------------------------|--1-----------------------|


  E  E  E  E  E  E  E  E     E  E  E  E  H                     
--------------------------|-----------------------|-----------|
--3-----------0-----------|--------------0--------|-----------|
-----------2-----2--------|-----------2-----------|-----------|
--------5-----------5-----|--------5--------------|-----------|
-----5-----------------5--|-----5-----------------|-----------|
--3-----------------------|--3--------------------|-----------|


  ^                          ^                        
  E  E  E  E  E  E  E  E     E  E  E  E  E  E  E  E   
--------------------------|-----------------------0--|
--3--------1--3--1--------|--3--------1--3--1--------|
--------3-----3-----3-----|--------3-----------3-----|
-----3-----------------3--|-----3-----------------3--|
--1-----------------------|--1-----------------------|
--------------------------|--------------------------|


  ^                          ^                        
  E  E  E  E  E  E  E  E     E  E  E  E  E  E  E  E   
--1--------------------3--|--5-----------------------|
--------------------------|-----------------------6--|
-----------0--2--0--------|--------------5-----------|
--------3-----------3-----|--------7--9-----9--7-----|
-----3-----------------3--|-----7-----------------7--|
--1-----------------------|--5-----------------------|


  E  E  E  E  E  E  E  E     E  E  E  E  E  E  E  E   
--0-----------------------|--------------------------|
-----------3--------------|-----1--3--1--------------|
--------3-----3-----------|--3-----------3-----------|
-----3-----------3-----3--|-----------------3--------|
--1-----------------1-----|-----------------------7--|
--------------------------|--------------------5-----|


  E  E  E  E  E  E  E  E     W                         Q    Q    Q    Q     
--------------------------|-------------------|-----|--1-------------------|
-----0-----0--------------|-------------------|-----|------------3---------|
--------7-----------------|-------------------|-----|-------2---------2----|
--7-----------7-----------|--7----------------|-----|--0-------------------|
-----------------7-----7--|-------------------|-----|----------------------|
--------------------5-----|-------------------|-----|----------------------|


                         ^                      ^                 
  Q    Q    Q    Q       Q    Q    Q    Q       W                 
--1--------------0----|--0-------------------|-------------------|
------------3---------|--1---------1---------|--3----------------|
-------2--------------|--2----2---------2----|-------------------|
--0-------------------|--0-------------------|--0----------------|
----------------------|----------------------|-------------------|
----------------------|----------------------|--0----------------|


-------------------||
-------------------||
-------------------||
-------------------||
-------------------||
-------------------||




Duration Legend
---------------
W - whole
H - half
Q - quarter
E - 8th
S - 16th
T - 32nd
X - 64th
. - note dotted
|-n-|  - n-tuplets


Tablature Legend
----------------
(n) - ghost note
^ - brush up
Login or Register to remove this ad.