Romance (Baldurs Gate II: Shadows of Amn) Guitar Tab

Submitted: Mar 26, 2014 by Bhael

5
Average: 5 (5 votes)
Download | Listen
Game: Baldurs Gate II: Shadows of Amn
Composer(s): Michael Hoenig
Style: Arrangement, Fingerstyle, Natural harmonics
Series: Baldurs Gate

Click here for a video example.

AutoScroll: Slow | Medium | Fast
                                   Romance                                     
                        Baldur's Gate II: Shadows of Amn
                                Michael Hoenig


Arranged by Harry Murrell




            NH       NH       NH       NH  
      E     E  E     E  E     E  E     E   
D#||--------------------0-----------------|
A#||-----------------------------3--------|
F#||--6--------6--------------------------|
C#||--------------------------------------|
G#||-----<>12-----<>12-----<>12-----<>12--|
D#||--------------------------------------|


        NH       NH       NH       NH          NH       NH       NH       NH  
  E     E  E     E  E     E  E     E     E     E  E     E  E     E  E     E   
--------------------------------------|--------------------0-----------------|
-----------0--------------------------|-----------------------------3--------|
--6-----------------6--------6--------|--6--------6--------------------------|
--------------------------------------|--0-----------------------------------|
-----<>12-----<>12-----<>12-----<>12--|-----<>12-----<>12-----<>12-----<>12--|
--------------------------------------|--------------------------------------|


        NH       NH       NH       NH    T      NH       NH       NH       NH  
  E     E  E     E  E     E  E     E     E      E  E     E  E     E  E     E   
--------------------------------------|---------------------0-----------------|
-----------0--------------------------|------------------------------3--------|
--6-----------------6--------6--------|--6---------6--------------------------|
--------------------------------------|---------------------------------------|
-----<>12-----<>12-----<>12-----<>12--|------<>12-----<>12-----<>12-----<>12--|
--------------------------------------|--7h-----------------------------------|


        NH       NH       NH        NH                       
  E     E  E     E  E     E  E      E     H.           Q     
---------------------------------------|--------------------|
-----------0---------------------------|---------------0----|
--6-----------------6--------6h--------|--0-----------------|
--------------------0------------------|--------------------|
-----<>12-----<>12-----<>12------<>12--|--------------------|
---------------------------------------|--3-----------------|


  E  E  E  E  E  E     E  E  E  E  E  E     E  E  E  E  E  E   
-----------0--------|--------------------|-----------0--------|
-----0-----------3--|-----2-----0-----2--|-----0-----------3--|
--2-----2-----------|--2-----2-----------|--2-----2-----------|
--0-----------0-----|--------------0-----|--------------4-----|
--------------------|--------------------|--2-----------------|
--------------------|--------------------|--------------------|


  E  E  E  E  E  E     E  E  E  E  E  E     E  E  E  E  E  E     H.            
--------------------|-----------0--------|--------------------|---------------|
-----2-----0-----2--|-----0-----------3--|-----2-----0-----2--|---------------|
--------2-----------|--2-----2-----------|--------2-----------|--2------------|
--------------0-----|--------------0-----|--------------0-----|---------------|
--2-----------------|--------------------|--------------------|---------------|
--------------------|--3-----------------|--3-----------------|--0------------|


                             ^                                 
  Q    Q.     E     E  E  E  E  E  E     E  E  E  E  E  E  E   
-----------------|-----------2--------|-----0-----------------|
-------2------3--|--------3--0-----2--|--------3--------3--2--|
--L--------------|-----6--------------|-----------6-----------|
-----------------|--0-----------0-----|--0-----------0--------|
-----------------|--------------------|-----------------------|
--L--------------|--------------------|-----------------------|


                                                           NH     
  E  E  E  E  E  E     E  E  E  E  E  E     E  E  E  E     E  E   
-----------2--------|-----0--------------|-----------------------|
--------2--------2--|--------3--------3--|--2--------2-----------|
-----4--------------|-----------6--------|--------2--------------|
--------------4-----|--------------0-----|--------------<>12-----|
--2-----------------|--2-----------------|-----------------------|
--------------------|--------------------|-----2--------------2--|


           NH       NH                NH    NH         ^                
  E  E     E  E     E  E     E  E     E     E  Q       E  E  E  Q.      
--------------------------|--------------------2----|--3---------------|
--2-----------2-----------|--2-----------------2----|--0--------3------|
-----4--------------------|-----4-------------------|-----2------------|
-----------------<>12-----|--------------<>12-------|--------0---------|
--------<>12--------------|--------<>12-------------|------------------|
-----------------------2--|-------------------------|--3---------------|


  H.              E  E  E  E   E  E  E  E     E  E   E  E  E  E  E  E   
---------------|--------------10-----------|--------10-----------------|
--L------------|-----7-----7------7-----7--|-----7------7-----7-----7--|
---------------|--9-----9------------9-----|--9------------9-----9-----|
---------------|--0------------------------|---------------------------|
---------------|---------------------------|---------------------------|
---------------|---------------------------|---------------------------|


                                                        NH      NH    
   E   E   E   E   E   E   E   E      E   E   E   E     Q       Q     
------------------10--------------|----------10----------------------|
------12------12------12------12--|------12------12------------------|
--12------12--------------12------|--12--------------<>12------------|
---0------------------------------|--------------------------<>12----|
----------------------------------|----------------------------------|
----------------------------------|----------------------------------|


                  NH                               NH  
  E  E   E  E     Q    Q       H.            E     E   
--9-----10------------------|---------------10--------|
-----0------0----------7----|-------------------<>19--|
---------------<>12---------|-------------------------|
----------------------------|--9----------------------|
----------------------------|-------------------------|
--7-------------------------|-------------------------|


     NH            NH                   NH              
     E  E  Q       Q    Q       Q       Q    Q    Q     
--<>12-----------------------|--0----------------------|
------------------------7----|-------------------------|
-----------6-----------------|-------------------------|
----------------<>12---------|-------------------------|
--------0--------------------|-------<>12----L----0----|
-----------------------------|-------------------------|


                           ^                 ^                              
  Q    E  E  E  E  Q       E  E  E  E  E  E  Q       E  E  Q    Q    E  E   
------------------------|--2-----------2-----3----|--2------------------2--|
-------------0-----2----|--3-----3-----------3----|--------3----L----3-----|
----------4-----4-------|--4-----------------4----|------------------------|
-------4----------------|-----4-----4--------4----|------------------------|
--2---------------------|--2--------------2-------|-----2------------------|
------------------------|-------------------------|------------------------|


                            ^                                            
  E  E  E  E  E  E  Q       H.           E  E     E  E  E  E  Q.     E   
--0----------------------|---------------------|------------------------|
--------0-----0-----0----|--2------------------|--0------------------0--|
-----------------2-------|--2------------L--2--|--------------4---------|
-----------2-------------|--2------------------|-----------5------------|
-----0-------------------|--0------------------|--------5---------------|
-------------------------|---------------------|-----3------------------|


                                    NH                                     
  E  E  E  E  Q.     E     E  E     H        Q       E  E  Q    Q    Q     
------------------------|--0----------------------|-----------------------|
---------------------0--|--------------------2----|--3---------------2----|
--6-----------6---------|-------------------------|-----------------------|
-----------7------------|--------<>12-------------|--------0----L---------|
--------7---------------|-------------------------|-----2-----------------|
-----5------------------|-----7-------------------|-----------------------|


                   ^                                                  
  E  E  E  E  Q    Q       H.           E  E     E  E  Q    H         
--------------0----0----|------------------0--|----------------------|
--3--------3-------3----|---------------3-----|--2-------------------|
--------2----------2----|---------------------|----------------------|
-----2-------------2----|---------------------|--------4----L--------|
--0----------------0----|--L------------------|-----2----------------|
------------------------|---------------------|----------------------|


           ^                              
  H        H           W                  
--------------------|-------------------||
--0--------2--------|--L----------------||
-----------3--------|--L----------------||
-----------4--------|--L----------------||
--------------------|-------------------||
--2--------2--------|--L----------------||



Login or Register to remove this ad.

2 comments on Romance

After all these years, it has

5

After all these years, it has arrived. Thank you, good man.

Hope it was worth the wait!

Hope it was worth the wait! Sorry it took so long haha