Ads

Koyomi-oniichan (Bakemonogatari) Guitar Tab

Submitted: Mar 01, 2016 by MechaKrauser

5
Average: 5 (8 votes)
Download | Listen
Game: Bakemonogatari
Composer(s): Kana Hanazawa
Style: Arrangement, Fingerstyle

AutoScroll: Slow | Medium | Fast
"Koyomi-oniichan"
from Bakemonogatari
music by Satoru Kosaki (MONACA)
tab by MechaKrauser

Standard tuning, capo 4
2/4 time, 82bpm

This is the piano version of the anime's 4th opening theme, "Ren'ai Circulation"


     E  E  E  E     Q    E  E     E  E  Q       E  E  E  E     E  S S E  E   
E||--0--1--0--1--|--3----0--1--|--0--1--3----|--3--1--0--1--|--0--L---------|
B||--------1-----|--0----------|--------0----|--------------|-------1----1--|
G||--------------|-------------|-------------|--2-----------|---------2-----|
D||--3-----------|-------------|--2----------|--------------|--0------3-----|
A||--------------|-------------|-------------|--------------|---------------|
E||--------------|-------------|-------------|--------------|---------------|


  E  S S E  E     E  S S E  E     H           E  E  E  E     Q    E  E     E  E  Q     
--0--L---------|---------------|--0--------|--0--1--0--1--|--3----0--1--|--0--1--3----|
-------1----3--|--1--L-1----1--|-----------|--------1-----|--0----------|--------0----|
--0------0-----|---------0-----|-----------|--------------|-------------|-------------|
---------2-----|---------2-----|--2--------|--3-----------|-------------|--2----------|
---------------|--3------------|-----------|--------------|-------------|-------------|
---------------|---------------|-----------|--------------|-------------|-------------|


  E  E  E  E     E  S S E  E     E  S S E  E     E  S S E  E     H           Q    Q     
--3--1--0--1--|--0--L---------|--0--L---------|------------0--|-----------|--3----0----|
--------------|-------1----1--|-------1----3--|--1--L-1-------|--1--------|-------1----|
--2-----------|---------2-----|--0------0-----|---------0-----|-----------|------------|
--------------|--0------3-----|---------2-----|---------2-----|-----------|------------|
--------------|---------------|---------------|--3------------|--3--------|--3---------|
--------------|---------------|---------------|---------------|-----------|------------|


  Q    Q       E  E  E  E     Q    E  E     Q    Q       Q    Q       E  E  E  E   
-------0----|-----------0--|----------0--|--1----0----|------------|--------0-----|
--3---------|--3--1--3-----|-------------|-------1----|--3----1----|--1--3-----3--|
--0---------|--------0-----|--2----------|--2---------|------------|--------0-----|
------------|--------------|-------2-----|------------|--3---------|--------------|
------------|--0-----------|--0----------|------------|------------|--3-----------|
------------|--------------|-------------|--1---------|------------|--------------|


  H           Q    Q       Q    Q       E  E  E  E     Q    E  E     Q    Q     
-----------|--3----0----|-------0----|-----------0--|----------0--|--1----0----|
--3--------|-------1----|--3---------|--3--1--3-----|-------------|-------1----|
--4--------|------------|--0---------|--------0-----|--2----------|------------|
-----------|------------|------------|--------------|-------2-----|--3---------|
-----------|--3---------|------------|--0-----------|--0----------|------------|
-----------|------------|------------|--------------|-------------|--1---------|


  Q    Q       Q    Q       Q    E  S S    E  S S E  E     E  S S E  S S    E  S S E  E   
-------0----|------------|--------------|---------------|----------------|---------------|
--1---------|--1---------|----------1---|---------------|--1--L-1-L--1---|---------------|
--0---------|-------0----|------------0-|--2--L-2----2--|--------------0-|--2--L-2----2--|
-------2----|------------|--------------|---------3-----|----------------|---------2-----|
------------|--3---------|--3----L------|---------------|----------------|---------------|
------------|------------|--------------|--1------------|--3-------------|--0------------|


  E  S S E  S S    E  S S E  E     E  S S E  E     E  S S E  E     Q    E  S S  
-------0-L------|---------------|---------------|---------------|--0----L------|
--1--L------1---|---------------|--1--L-1----3--|--1--L-1----1--|----------1---|
--------------0-|--2--L-2----2--|---------0-----|---------0-----|------------0-|
----------------|---------3-----|---------------|---------------|--------------|
--0-------------|--5------------|---------------|--3------------|--0-----------|
----------------|---------------|--3------------|---------------|--------------|


  E  S S E  E     E  S S E  S S    E  S S E  E     E  S S E  S S    E  S S E  E   
---------------|----------------|---------------|--0--L----------|---------------|
---------------|--1--L-1-L--1---|---------------|-------1-L--1---|---------------|
--2--L-2----2--|--------------0-|--2--L-2----2--|--------------0-|--2--L-2----2--|
---------3-----|----------------|---------2-----|----------------|---------3-----|
---------------|----------------|---------------|--0-------------|--5------------|
--1------------|--3-------------|--0------------|----------------|---------------|


  E  S S E  E     E  S S E  E     H          
---------------|------------0--|-----------||
--1--L-1----3--|--1--L-1-------|--1--------||
---------0-----|---------0-----|-----------||
---------------|---------------|-----------||
---------------|--3------------|--3--------||
--3------------|---------3-----|-----------||




Duration Legend
---------------
W - whole
H - half
Q - quarter
E - 8th
S - 16th
T - 32nd
X - 64th
. - note dotted
|-n-|  - n-tuplets


Tablature Legend
----------------
L - tied note
x - dead note
g - grace note
(n) - ghost note
> - accentuded note
NH - natural harmonic
AH - artificial harmonic
TH - tapped harmonic
SH - semi harmonic
PH - pitch harmonic
h - hammer on
p - pull off
b - bend
br - bendRelease
pb - preBend
pbr - preBendRelease
brb - bendReleaseBend
\n/ - tremolo bar dip
\n - tremolo bar dive
-/n - tremolo bar Release up
/n\ - tremolo bar inverted dip
/n - tremolo bar return
-\n - tremolo bar Release down
S - shift slide
s - legato slide
/ -  slide into from below or out of upwards
\ -  slide into from above or out of downwards
~ - vibrato
W - wide vibrato
tr - trill
TP - tremolo picking
T - tapping
S - slap
P - pop
< - fade in
^ - brush up
v - brush down
Login or Register to remove this ad.