Login or Register to remove this ad.

Shimada Minami (Baka and Test - Summon the Beasts) Guitar Tab

Submitted: Oct 07, 2017 by FingerstyleGaming

5
Average: 5 (2 votes)
Download | Listen
Game: Baka and Test - Summon the Beasts
Composer(s): Nijine
Style: Arrangement, Fingerstyle, Natural harmonics, Tapped harmonics

AutoScroll: Slow | Medium | Fast
                                            Shimada Minami                                               


Nylon Guitar
                                            NH                                                TH        
                       |-3-|                                              |-3-|                         
     E  E  E  H        S S S    H           H           E  E  E  H        S S S    H          H         
E||--0-----0-----------------|--0--------<>12--------|--0-----0-----------------|----------------------|
B||--1--3--------------0-1-3-|-----------------------|--1--3--------------0-1-0-|----------------------|
G||--2--------2--------------|-----------------------|--2--------2--------------|--2--------<>2--------|
D||--3-----------------------|-----------------------|--4-----------------------|----------------------|
A||--------------------------|-----------------------|--------------------------|----------------------|
D||--------------------------|-----------------------|--------------------------|----------------------|


                    |-3-|                                                                    
  E  E  E  H        S S S    H        H           E  E  E  Q.     Q       H        H         
--0-----0-----------------|--0--------3--------|--0--------------------|--------------------|
--1--3--------------0-1-3-|--------------------|--3-----0--------------|--0-----------------|
--2--------2--------------|--------------------|--4--5-----0-----------|--2--------2--------|
--3-----------------------|--------------------|--5---------------2----|--2-----------------|
--------------------------|--------------------|-----------------------|--0-----------------|
--------------------------|--------------------|-----------------------|--------------------|


                    |-3-|                                                                               
  E  E  E  H        S S S    E  E  E  E  Q    Q       E  E  E  E  Q    E  E     E  E  E  E  Q.     S S  
--0-----0-----------------|--0---------------------|-------------------------|-------------------------|
-----3--------------0-1-3-|-----------1--3----1----|--0--------0--1----------|--0----------------------|
--------0--2--------------|--------3---------------|--------0----------0-----|--------------2------2-4-|
--------------------------|-----3------------------|-----2----------------2--|--------2--4--4----------|
-----3--------------------|--1---------------------|--0----------------------|-----0-------------------|
--3-----------------------|------------------------|-------------------------|--0-----------0----------|


  E  E  E  E  E  E  E  E     E  E  E  E  Q    Q       E  E  E  E  E  E  E  E     E  E  E  E  H         
--------------------------|--------0---------------|--------------0--------0--|--1-----------0--------|
--1-----------3-----------|--------------3---------|--------3-----1-----1-----|--1-----------2--------|
--------------2--4--2--4--|--5--------2--4----4----|--0--------0--0--2--------|--0-----0-----0--------|
--------2--3--3-----------|-----0--3---------------|-----2--------------------|-----2-----2-----------|
-----0--------------------|------------------------|--3-----------------------|--0--------------------|
--0-----------------------|--5---------------------|--------------------------|-----------------------|


  E  E  E  Q    E  E  E     E  E  E  E  Q    Q       E  E  E  Q.     S S S S    E  E  E  E  Q    Q     
--0-----0----------------|--0-----------3----0----|--------------------------|--------------3----1----|
-----3----------------1--|--------3-----3---------|--3-----3-------------0---|--3-----1---------------|
-----------2-------2-----|--------1---------------|-----5--------------2---5-|--------2-----0---------|
--------2--3----3--------|-----3-----3------------|--------2--5------5-------|-----2-----2------------|
-----0-------------------|--1---------------------|-----2--------------------|--0-----------0---------|
--0----------------------|------------------------|--2-----------------------|------------------------|


  E  E  E  E  E  E  Q       E  E  E  E  E  E  E  E     E  E  E  E  E  E  Q       Q    E  E  E  E  Q     
--0-----------------1----|--------------------------|--------------5-----2----|--0---------------------|
-----------------1--1----|--3--------------1--3--1--|--5--------3-----3-------|-------------------0----|
--------------2----------|--------1-----------------|--2-----2----------------|--1----1-----2-----1----|
--------2--3-------------|-----3-----3--3-----------|--4--4-------------------|-------2-----4----------|
-----0-------------------|--1-----------1-----------|--2----------------------|------------------------|
--0----------------------|--------------------------|-------------------------|-------2--2--2--2--2----|


  E  E  E  Q    E  E  E     E  E  E  E  E  E  Q       E  E  E  Q    E  E  E     E  E  E  E  E  E  E  E   
--3--1--0----------------|--0----------------------|--3--1--0----------------|--1-----------0--------1--|
--1--------1-------0--1--|--------------3----------|-----------3----1--0--1--|--1-----------2-----------|
--2-------------2--------|--5-----2--5--4--0-------|--------0--4-------------|--2-----0-----2-----0-----|
--------2--3-------------|-----0-------------------|-----2-------------------|-----2-----2-----2-----2--|
-----0-------------------|-------------------------|-------------------------|--0-----------0-----------|
--0----------------------|--5-----------5-----3----|--2----------------------|--------------------------|


  E  E  E  Q    E  E  E     E  E  E  E  E  E  E  E     E  E  E  E  E  E  E  E   
--0----------------------|--------------------------|--------------------------|
-----1--1-------------0--|--1-----0-----------0-----|-----------3--------------|
--2--------2-------2-----|--------------2-----------|--2--------0--0-----------|
--3-----2--3----3--------|-----0--3--0-----0--3--0--|--------2-----0--2--3--2--|
-----0-------------------|--------------------------|-----2--------2-----------|
--0----------------------|--5-----------5-----------|--2-----------------------|


  E  E  E  E  E  E  Q       E  E  E  Q    E  E  E     E  E  E  E  H           E  E  E  Q    E  E  E   
--------------------0----|--3--1--0----------------|-----------------------|--3--1--0----------------|
--------------2-----2----|-----------1-------0--1--|--5--------1--3--------|-----------3----1--0--1--|
--3-----2-----0-----0----|----------------2--------|--------3-----3--------|--------0--4-------------|
-----2--3--2-----2--2----|--------2--3-------------|-----3-----------------|-----2-------------------|
--0-----------0-----0----|-----0-------------------|--1--------------------|-------------------------|
-------------------------|--0----------------------|-----------------------|--2----------------------|


  E  E  E  E  E  E  E  E     E  E  E  E  E  E  E  E     E  E  E  E  E  E  Q     
--1-----------0--------1--|--0-----------------------|-------------------------|
--1-----------2-----2-----|-----1--1-----------0--1--|--------------0----------|
--------0-----------------|--------------2--2--------|--5----------------------|
-----2-----2-----2--------|--------2--3--3-----------|--------7-----------6----|
--0-----------0-----------|-----0--------------------|-----5-----5-----7-------|
--------------------------|--0-----------------------|--5-----------6----------|


  E  E  E  E  E  E  Q       E  E  E  E  H           E  E  E  E  E  E  E  E     W                  
--------------------0----|-----------------------|--0-----0-----------------|--5----------------||
--1-----1-----0----------|--------------3--------|-----3--------------------|--3----------------||
--------2-----0-----0----|--2--------2--2--------|--------0--2--L-----0-----|--5----------------||
-----2-----2-----2-------|--------0--------------|--------------------------|--3----------------||
--0----------------------|-----0-----------------|-----3-----3-----3-----3--|--3----------------||
--------------5----------|--4-----------4--------|--3-----------------------|--3----------------||




Duration Legend
---------------
W - whole
H - half
Q - quarter
E - 8th
S - 16th
T - 32nd
X - 64th
. - note dotted
|-n-|  - n-tuplets


Tablature Legend
----------------
L - tied note
x - dead note
g - grace note
(n) - ghost note
> - accentuded note
NH - natural harmonic
AH - artificial harmonic
TH - tapped harmonic
SH - semi harmonic
PH - pitch harmonic
h - hammer on
p - pull off
b - bend
br - bendRelease
pb - preBend
pbr - preBendRelease
brb - bendReleaseBend
\n/ - tremolo bar dip
\n - tremolo bar dive
-/n - tremolo bar Release up
/n\ - tremolo bar inverted dip
/n - tremolo bar return
-\n - tremolo bar Release down
S - shift slide
s - legato slide
/ -  slide into from below or out of upwards
\ -  slide into from above or out of downwards
~ - vibrato
W - wide vibrato
tr - trill
TP - tremolo picking
T - tapping
S - slap
P - pop
< - fade in
^ - brush up
v - brush down
Login or Register to remove this ad.