Login or Register to remove this ad.

Kakusa Shakai (Baka and Test - Summon the Beasts) Guitar Tab

Submitted: Oct 11, 2017 by Ttegdap

0
Download | Listen
Game: Baka and Test - Summon the Beasts
Composer(s): Nijine
Style: Arrangement, Fingerstyle

This song is also called Social Inequality

AutoScroll: Slow | Medium | Fast
                                Kakusa Shakai

     E  S S E  E  Q    Q       E  E  E  E  E  E  E  E   
E||------------0------------|--------------------------|
B||--0------0-----4----2----|--0-----------------------|
G||-----1-2------------2----|--1-----------------------|
D||-------------------------|-----2--1--2--------------|
A||------------4--6---------|--------------2-----0-----|
E||--4--0-2-4---------------|-----------------4-----2--|


  E  S S E  E  E  E  E  E     E  E  E  E  E  E  E  E   
------------0--------------|--------------------------|
--0------0--2--4--2--0-----|--0-----------------------|
--1--1-2-1-----4--2--1--2--|--1-----------------------|
-----2-4----------------4--|-----2--1--2--------------|
---------------------------|--------------2-----0-----|
--0------------------------|-----------------4-----2--|


  E  E  E  E  E  E  E  E     E  E  E  E  E  E  E  E   
--------------------------|-----------------------2--|
--------------------------|-----0--0--2--2--4--4--4--|
-----------------------1--|--1-----1-----2-----4-----|
--2--2--2--2--2--4--4-----|--2-----------------------|
--2-----2-----4-----6-----|--------------------------|
--0-----0-----0-----0-----|--0-----0-----0-----0-----|


  E  S S S S S S E  S S S S S S    E  S S S S S S Q    S S S S  
--4-----------------------------|--0----0--------------2-------|
--5--4-2-0----------------------|-----4---4-2-0----------5-4-5-|
-----------2-1---1--------------|---------------2-1------------|
---------------4-2--1-----------|------------------------------|
----------------------4-2-0-----|------------------------------|
--0-------------------------4-2-|--4---------------------------|


  S S S S S S S S S S S S S S S S    S S S S S S S S S S S S S S E   
------------------0---0---0---0---|--2---2---0---0------------------|
--4---4---4---4-----0---0---0---0-|----0---0---0---0-4---4---4---4--|
----4---4---4---4-1---------------|--2-------1---------4---4---4----|
--4-------------------------------|------------------4--------------|
--2-------2-------2-------2-------|--2-------2-------2-------2------|
----------------------------------|---------------------------------|


  S S S S S S S S S S S S S S S S    E  E  E  E  S S S S S S S S  
--2-------2---5---4-------0---4---|--5--4--5--4--2---------------|
----0---0---0---0---0---0---0---0-|------------------------------|
------2---------------2-----------|------------------------------|
----------------------------------|------------------------------|
--2-------2-------2-------2-------|--2-----------2-1-2-4-2-0-----|
----------------------------------|--------------------------4-2-|


               |-3-|              |-3-|                       
  S S E  E  E  S S S S S E  E     S S S S S E  E  E  E  Q     
------------0------------------|------------------------0----|
------0--0-----4-5-4-2-4-0-----|------------------2--4-------|
--1-2----------2---------1-----|--2-4-2-1---1-----2--4--1----|
----------------------------2--|----------4----2-------------|
-------------------------------|-----------------------------|
--0------0-----0---------0-----|--0---------0-----0-----0----|


               |-3-|              |-3-|                       
  S S E  E  E  S S S S S E  E     S S S S S E  E  E  E  Q     
------------0------------0-----|------------------5--4-------|
------0--0-----4-5-4-2-4----0--|------------------------7----|
--1-2----------2---------1-----|--2-4-2-1---1-----2--3--4----|
-------------------------------|----------4----2-------------|
-------------------------------|------------------4--4--6----|
--0------0-----0---------0-----|--0---------0----------------|


               |-3-|              |-3-|                       
  S S E  E  E  S S S S S E  E     S S S S S E  E  E  E  Q     
------------0------------------|------------------------0----|
------0--0-----4-5-4-2-4-0-----|------------------2--4-------|
--1-2----------2---------1-----|--2-4-2-1---1-----2--4--1----|
----------------------------2--|----------4----2-------------|
-------------------------------|-----------------------------|
--0------0-----0---------0-----|--0---------0-----0-----0----|


               |-3-|              |-3-|                       
  S S E  E  E  S S S S S E  E     S S S S S E  E  E  E  Q     
------------0------------0--7--|--5-7-5-4---4-----------0----|
------0--0-----4-5-4-2-4-------|----------7----5--2--4-------|
--1-2----------2---------1-----|---------------------4--1----|
-------------------------------|--7---------------4----------|
-------------------------------|--0---------7-----2--2-------|
--0------0-----0---------0-----|------------4-----------0----|


   E   E   E   E   E   E   E   S  S     E   E   E   E   E   S  S E  E   
----------12------------------------|----------------------------------|
------------------12----------11-12-|--14--12--------------------0-----|
------------------------------------|----------14--13--11--10-11-------|
------------------------------------|----------------------------7--7--|
--11--11--11--11--11--11--11--11----|--11--11--11--11--12--12----------|
------------------------------------|----------------------------------|


  E  E  E  E  E  E  E  S S    E  E  E  S S E  E  E  E   
--------7------------------|---------------0-----------|
---------------------------|--7--5---------------------|
--------------8--------6-8-|--------8--6-8-------------|
--7--7--7--7--7--7--7--7---|--7--7--7--7---6--6--6--6--|
---------------------------|---------------------------|
---------------------------|---------------------------|


  E  E  E  E  E  E  E  S S    E  E  E  E  E  S S E  E   
--------0------------------|---------------------------|
--------------0----------0-|--2--0---------------------|
-----------------------3---|--------2------------------|
---------------------------|-----------6--4--3-4-------|
---------------------------|---------------------2-----|
--4--4--4--4--4--4--4--4---|--4--4--4--4--5--5---5--5--|


  E  E  E  E  E  E  E  S S    E  E  E  S S E  S S S S S S  
---------------------------|------------------0-0---------|
--------0------------------|----------------------0-0-----|
---------------------------|------------------------------|
---------------------------|--4-----------------------6-6-|
--------------6--------4-6-|-----7--6--4-6-7--------------|
--5--5--5--5--5--5--5--5---|--5--5--5--5---4--4---4---4---|


  S S  S  S S S S S S S S S S S S S  
----------------7-7-------------7-7-|
--7-7-------7-7-----9-9-8-8-9-9-----|
------10-10-------------------------|
------------------------------------|
------------------------------------|
--7---------7-------7-------7-------|


   S  S  S  S  S  S S S S S  S  S S S  S  S  
--------------------9-9-7-7-------7-7-11-11-|
--11-11-10-10-11-11---------11-11-----------|
--------------------------------------------|
--------------------------------------------|
--------------------------------------------|
---7-----------7--------7---------7---------|


   S  S S S S S S S  S  S S S S S S S  
--12-12-7-7-----7-7-13-13-9-9-----9-9-|
------------9-9---------------9-9-----|
--------------------------------------|
--------------------------------------|
--------------------------------------|
---7--------7--------7--------7-------|


   S  S  S  S  S  S S S  S  S  S  S S S  S  S    Q    Q    S S E  Q     
--14-14-12-12-11-11-9-9-----------------------|--0----------------0----|
---7--------------------12-12-10-10-9-9-------|--0----0----2-0-2--0----|
---8------------------------------------11-11-|--1----1----2-1-2-------|
----------------------------------------------|------------------------|
----------------------------------------------|------------0-----------|
---7------------------------------------------|--0----------------4----|


  E  E  E.  S E  E  Q       Q    Q    S S E  E  E     E  E  E.  S E  E  Q     
-------------------------|--0-------------------0--|--5--4--2---0-0----------|
--2--0-------------------|--0----0----2-0-2--0--2--|--2----------------------|
--2--1--2---1-1----------|--1----1----2-1-2--1-----|-----4--2---1-1----------|
--------4---2-2----------|-------------------------|--------------2----------|
--------2--------2-------|------------0------------|--------2--------2-------|
--2-----------------0----|--0----------------4-----|--2-----------------0----|


  Q    Q    S S E  Q       E  E  E.  S E  E  Q       Q    Q    S S E  E  E   
--0----------------0----|-------------------------|--0-------------------0--|
--0----0----2-0-2--0----|--2--0-------------------|--0----0----2-0-2--0--2--|
--1----1----2-1-2-------|--2--1--2---1-1----------|--1----1----2-1-2--1-----|
------------------------|--------4---2-2----------|-------------------------|
------------0-----------|--------2--------2-------|------------0------------|
--0----------------4----|--2-----------------0----|--0----------------4-----|


  E  E  E.  S E  E  Q      
--5--4--2---0-0----------||
--2----------------------||
-----4--2---1-1----------||
--------------2----------||
--------2--------2-------||
--2-----------------0----||
Login or Register to remove this ad.