Ezio's Family (Assassins Creed II) Ukulele Tab

Submitted: Dec 06, 2010 by A Dead Fly (Last updated: Dec 08, 2010)

5
Average: 5 (1 vote)
Download | Listen
Game: Assassins Creed II
Composer(s): Jesper Kyd
Style: Transcription
Series: Assassins Creed

AutoScroll: Slow | Medium | Fast
Artist: Jesper Kyd
Album: Assassin's Creed 2
Song: Ezio's Family
Tabbed by: A Dead Fly

Tabbed for a Ukulele with standard tenor tuning GCEA
meaning the G is tuned an octave lower than normal, you
can play it with the high G, the chords might sound a
little different though

Listen to the song to figure out where everything goes

Main Theme (add slides and vibrato as necessary)

Starts out like this at the beggining:

A|--------0-------|---------0------|--------0-------|----------------|
E|----------------|-3--------------|----------------|-3------1-------|
C|-2--------------|----------------|-2--------------|----------------|
G|----------------|----------------|----------------|----------------|

Then switches when the guitar enters and plays it like this the through
the rest of the song:

A|----------------|---------0------|----------------|----------------|
E|--------1-------|-3--------------|--------1-------|-3------1-------|
C|-2--------------|----------------|-2--------------|----------------|
G|----------------|----------------|----------------|----------------|

And sometimes takes out the second part and does this buildup:

A|-5------7-------|-8------10------|-12-------------|
E|----------------|----------------|----------------|
C|----------------|----------------|----------------|
G|----------------|----------------|----------------|


Chord Strumming part (simplified for Ukulele, couldn't keep all
the little fills):

Listen and make the strum pattern yourself

   D                G7sus2           Dm/A#            Dm7
A|-0--------------|-0--------------|-0--------------|-3--------------|
E|-1--------------|-1--------------|-1--------------|-1--------------|
C|-2--------------|-2--------------|-2--------------|-2--------------|
G|-2--------------|-0--------------|-3--------------|-2--------------|


There's a quiet part that plays at the beggining and a bunch of other parts
like this if you want to play it, it never changes:

A|----5-----5-----|----5-----5-----|
E|--------5---5---|--------5---5---|
C|--2---5-------5-|--2---5-------5-|
G|----------------|----------------|



Viola Solo (add slides and vibrato):

A|----------------|-5--------------|----------------|----------------|
E|-------5--------|-------------5--|----------5-----|-6------------5-|
C|----------------|----------------|----------------|----------------|
G|----------------|----------------|----------------|----------------|

A|----------------|----------------|----------------|----------------|
E|---------3------|-5-----------3--|----------5-----|--------3-------|
C|----------------|----------------|----------------|----5-------4---|
G|----------------|----------------|----------------|----------------|

A|----------------|----------------|----------------|-5--------------|
E|-5--------------|-6-----------5--|--------5-------|-------------5--|
C|----------------|----------------|----------------|----------------|
G|----------------|----------------|----------------|----------------|

A|----------------|-8-----------5--|----------5-----|----------------|
E|--------6-------|----------------|----------------|-5--------------|
C|----------------|----------------|----------------|----------5-4---|
G|----------------|----------------|----------------|----------------|


There's another part where everything goes quiet except for a guitar
playing the main theme and another guitar that picks out a Dm chord
like this:


A|----8-----------|----8-----------|
E|---------10-----|--------10------|
C|--------------9-|-------------9--|
G|-7--------------|-7--------------|


And that's everything there is in the song that you would consider playing
on a Ukulele :P

Email questions or comments to [email protected]

Please give me credit if you use this tab for a video, or pass it on
Login or Register to remove this ad.